The Smiths & Morrissey Bass Tabs

You've Got Everything Now (Alt. Version)

(Morrissey/Marr)
			
Intro
G |-----------------|
D |---------7-------|
A |-7---------------|
E |-----------------|

Verse A                                Verse B
G |---------------------------------| |---------------------------------|---------------4---4---4---4---4-|
D |---4-----------------4-----------| |---4-----------------4-----------|---------6-----2-----------------|
A |-------4-2---4---------4-2---2-4-| |-------4-2---4---------4-2-2-4-2-|---4-4-4---4----(2)--2---2---2---|
E |-2-------------2---2-------------| |-2-------------2---2-------------|---------------------------------|

Verse C
G |---------------------------------|---------------------------------|
D |---4-----------------4-----------|---------6-----------------------|
A |-------4-2---4---------4-2---2-4-|---4-4-4---4---------------------|
E |-2-------------2---2-------------|---------------5---5-7-5-4-4-5-4-|

Chorus
G |-*---4---------------------------|---------------------------------| *) Only first time
D |(2)2---2-------------------------|-----4-------------4-------------|
A |---------2---0-0---0-0---2-4-2---|-------4-2-4---------4---------0-|
E |-----------------------2-------2-|---2---------2---2-----2-4x------|

G |---------------------------4-----| |-----------4---------------------|
D |-------------------------2---2---| |-2---2---2-----0-----0---0---0-2-|
A |---0-0-0-0-4-0-2---2-2-2-------2-| |-------------2-----0---0---0-----|
E |---------------------------------| |---------------------------------|

Alt. Chorus End (Replaces last bar)
G |-----------4---------------------|---------------------------------|
D |-2---2---2-----0-----0---0---0---|---------------------------------|
A |-------------2-----0---0---0---0-|-4~~-----------------------------|
E |---------------------------------|---------------------------------|

Outro (Also Replaces last bar of Chorus)
G |---------------------------------|-2-----2---2---------------------|
D |-2---2-2---2-2---0---0-0---0-0---|---------2---2-------------------|
A |---------2---------------0-------|---------------2-3~~-----5~~-----|
E |---------------------------------|---------------------------------|

Order:
[00:00] Intro
[00:03] Verse A 2x, B
[00:17] Verse A 2x, B
[00:30] Verse C 4x (But you've got everything now)
[00:57] Chorus 3x
[01:46] Alt. Chorus End

[01:53] Verse A, B
[02:03] Verse A 2x, B
[02:17] Verse C 4x  (But you've got everything now)
[02:43] Chorus 3x
[03:33] Outro (To the back of your car...)

		
Scroll