The Smiths & Morrissey Bass Tabs

You Just Haven't Earned It Yet, Baby

(Morrissey/Marr)
			
Intro
G |---------------------------------|---------------------------------|
D |---------------------------------|---------------------------------|
A |---------------------------------|-------------------------------2-|
E |---------------------------------|-2-2-2-2-2-2-2-2-2-2-2-2-2-------|

Verse
G |---------------------------------|---------------------------------|
D |---------------------------------|---------------------------------|
A |-4-------2-------4-----2-------2-|-4-------2-------4-------------2-|
E |-------4-----4-2-------------4---|-------4-----4-2-------2---2-4---|

G |---------------------------------|---------------------------------|
D |---------------------------------|---------------------------------|
A |-4-------2-------4---------------|---------------2~~---------------|
E |-------4-----4-2-------2---2-4-2-|-2-----2-2-2-4-------------------|

G |---------------------------------|---------------------------------|
D |---------------------------------|---------------------------------|
A |-4-------2-------4-----2-------2-|-4-------2-------4-------------2-|
E |-------4-----4-2-------------4---|-------4-----4-2-------2---2-4---|

G |---------------------------------|---------------------------------|
D |---------------------------------|-----4-------4-2-0-----2---------|
A |-4-------2-------4---------------|---------------------------------|
E |-------4-----4-2-------2---2-4-2-|-2-----0-2-2---------------------|

Chorus
G |---------------------------------|---------------------------------||
D |-1---1---1---1---------2---2-2h4-|-----4-------4-------------------||
A |---------------1h2---------------|---------------3-4-----4---4-4-5-||
E |---------------------------------|-2-------2-----------------------|| 3x

G |---------------------------------|---------------------------------|
D |-1---1---1---1---------2---2-2h4-|---------------------------------|
A |---------------1h2---------------|---------------------------------|
E |---------------------------------|-2-------2-2-----2-2-----2-2-----|

Order:
[00:00] Intro
[00:06] Verse 2x
[00:33] Chorus
[00:53] Verse 2x
[01:20] Chorus
[01:40] First Two Verse bars 2x
[01:54] Last Four Verse bars
[02:07] Chorus
[02:27] <span class="TABLYR">(Guitar Only)</span>
[02:37] Chorus until end

		
Scroll