The Smiths & Morrissey Bass Tabs

Wonderful Woman

(Morrissey/Marr)
			
          Verse
G |---|  |-------------------6-------------|---------------------------------|
D |---|  |---------------------------------|---------------------------------|
A |---|  |-----6-------6-4---------7---6---|-----6---------------6-----------|
E |-2-|  |-4-4---4---------------7-------7-|-4-----4-2---4-2-4-4---2---2---2-|

G |-------------------6-------4-----|---------------------------------|
D |------------------------/6---6-4-|---------------------------------|
A |-----6-------6-4-----------------|-----6---------------6-----------|
E |-4-4---4---------------7---------|-4-----4-2---4-2-4-4---2---2---2-|

Bridge
G |---------------------------------|---------------------------------|
D |-1---------4---3-----------------|---------------------------------|
A |---------1-------2-----2-1---2---|-----6---------------6-----------|
E |-------------------------------4-|-4-4---4-2---4-2-4-4---2---2---2-|

G |---------------------------------|---------------------------------|
D |-1---------4---3-----------------|---------------------------------|
A |---------1-------2-----2-1---2---|-----7-------7-------9-------9---|
E |-------------------------------4-|-5-5---5-5-5---5-7-7---7-7-7---7-|

Chorus
G |---------------------------------|---------------------------------|
D |---------------------9-----------|---------------------------2-----|
A |-----6x--4----/7---7---7---------|/7--(7)7(7)7-7--/7---7-7-2---2---|
E |-4-4---------------------4-------|------------------------------2--|

Outro
G |---------------------------------|---------------------------------|
D |--------------------------7------|---------------------------------|
A |-5-5----5-5-----5-5-----5---5----|---------------------------------|
E |------5-------5-------5----------|-5-------------------------------|

Order:
[00:00] Verse
[00:18] Bridge (What to be done with her...)
[00:36] Chorus 2x
Repeat this 2 times

[02:40] Chorus 2x
[02:57] Outro 

		
Scroll