The Smiths & Morrissey Bass Tabs

William, It Was Really Nothing

(Morrissey/Marr)
			
Verse
G |---------------------------------|---------------------------------|
D |-----------------4---4-----------|---------------------------------|
A |--------5-5-3535--------2-2-42---|--------5-55-5---------02-2-42---|
E |-3---3-------------------------2-|-3~~-------------2~~-----------2-|

Verse End A
G |---------------------------------|---------------------------------|---------------------------------|
D |-----------------5---5--4-45--4--|---------------------------------|---------------------------------|
A |-------------------------------5-|-5---5--5-55-7-0-0---0--0-00-2---|-----------------0---0--0-00-0-1-|
E |-3---3--3-33-3-2-----------------|-------------------------------2-|-3---3--3-33-3-2-----------------|

Verse End B (God knows I've got to live mine)
G |----------------/7------6--------|---------------------------------|
D |---------------------------------|---------------------------------|
A |-2------2-22-2--------------(7-9)|-5------5-55-5---7*-----7-77-7---| *) When played 2nd time
E |---------------------------------|---------------------------------|    stop here

Insrtrumental Bridge
G |---------------------------------|---------------676*--------------| *) 3 Notes hammer-ons/pull offs
D |-----5-----575*------5-----------|-----7-------------------5---7---|
A |---------------------------------|-------------------(stop)--------|
E |-3------3------2-3------3-33-3-4-|-5------5-5----------------------|

Chorus                                                                       Chorus End
G |---------------------------------|--------------------11-------11--||    |---------------------------------|
D |---------------------------------|-----9------789*-----------------||    |-----9----9-7--------------------|
A |--------5-55-5-------------------|----------------9------9---9---9-||    |--------------9-7~~--------------|
E |-3---3-----------3---3--5-55-5-6-|-7------7------------------------|| 2x |-7------7------------------------|

Order:
[00:01] Verse 2x
[00:15] Verse End A
[00:26] Verse End B 2x
[00:41] Instrumental Bridge

[00:48] Chorus
[01:03] Chorus End
[01:07] Instrumental Bridge
Repeat above 3 times

		
Scroll