The Smiths & Morrissey Bass Tabs

What She Said

(Morrissey/Marr)
			
Intro
G |---------------------------------|
D |-(Fade in)-----4-4-4-4-4-4-4-4-4-|
A |---------------------------------|
E |---------------------------------|

Verse
G |---------------6---------------6-|---------------------------------|
D |-----8-------7-------6-------7---|---------------------------------|
A |-9-9---9---7-----7-7---7---7-----|-----9-------9---5-5-----4-4-----|
E |---------------------------------|-7-7---7---7---------------------|

G |---------------------------------|---------------------------------|
D |---------------------------------|-----7-------7-------666-7---6---|
A |-0-0-7-0---0-7-0-----9-------9---|-5-5---5---5---5-7-7-------------|
E |-----------------7-7---7---7---7-|---------------------------------|

Break
G |-----------------9---------------||     |---------------------------------|
D |-------4x-4x-4/7---7-------------||     |---------------------------------|
A |-------------------------0---2---||     |-0-------2-------5-------7---8---|
E |-2-------------------------------|| 3x  |---------------------------------|


Order:
[00:00] Intro
[00:03] Verse 4x
[00:49] Break
[01:01] Verse 4x
[01:47] Break
[01:58] Verse until end

		
Scroll