The Smiths & Morrissey Bass Tabs

What Difference Does It Make? (Alt. Version)

(Morrissey/Marr)
			
Verse
G |-----------6-----6-4---6-|-----------6-----4-------|----------\9-----9-8---9-|-------------4---4-3-----|
D |-------------------------|-------------------------|-------------------------|-4---4-----------------6-|
A |-4---4-------------------|-4---4-------------6-----|-7---7-------------------|-------------------------|
E |-------------------------|-------------------------|-------------------------|-------------------------|

Chorus
G |-----6-----------6-------|-----6-------6-----------|-------------------------|-------------------------|
D |-----------6-4-----------|-4---------4-----4\------|-----6---------6---------|-4-----------------------|
A |-4-----------------------|-------------------------|-------6---------6-------|--------2-----2-2---2----|
E |-------------------------|-------------------------|-4---------4---------4---|-------------------------|

Chorus End
G |-------------------------|-------------------------||
D |-------8-----------------|-4---4-------------------||
A |-------------8-----6---4-|-------6---4-------------||
E |-6-----------------------|-------------4-----5-----|| 3x

Outro
G |-------------------------|-------------------------|-------------------------|-------------------------|
D |-------------------------|-------------------------|-------------------------|-------------------------|
A |-4---4-------4---4-------|-4---4-------4---6-------|-7---7-------7---7-------|-9---9--------7---6------|
E |-----------4-----------4-|-----------4-------------|-----------7-----------7-|------------7------------|

Order:
[00:06] Verse 5x
[00:35] Chorus
[00:48] Chorus End

[00:57] Verse 4x
[01:21] Chorus
[01:33] Chorus End
Repeat Above

[02:27] Verse 3x
[02:24] Outro Until End

		
Scroll