The Smiths & Morrissey Bass Tabs

What Difference Does It Make?

(Morrissey/Marr)
			
Verse
G |-----------4-----4-2---4-|-----------4-----2-------|----------/7-----7-6---7-|-------------2---2-1-----|
D |-------------------------|-------------------------|-0---0-------------------|-2---2-----------------4-|
A |-2---2-------------------|-2---2-------------4-----|-------------------------|-------------------------|
E |-------------------------|-------------------------|-------------------------|-------------------------|

Chorus
G |-----4-----------4-------|-----4-------4-----------|-------------------------|-------------------------|
D |-----------4-2-----------|-2---------2-----2\------|-----4---------4---------|-2-----------------------|
A |-2-----------------------|-------------------------|-------4---------4-------|-------0------0-0---0----|
E |-------------------------|-------------------------|-2---------2---------2---|-------------------------|

Chorus End
G |-------------------------|-------------------------||
D |-------6-----------------|-2---2-------------------||
A |-------------6-----4---2-|-------4---2-------------||
E |-4-----------------------|-------------2-----3-----|| 3x

Outro
G |-------------------------|-------------------------|-------------------------|-------------------------|
D |-------------------------|-------------------------|-------------------------|-------------------------|
A |-2---2-------2---2-------|-2---2-------2-----4-----|-5---5-------5---5-------|-7---7-------5-----4-----|
E |-----------2-----------2-|-----------2-------------|-----------5-----------5-|-----------5-------------|

Order:
[00:05] Verse 5x
[00:35] Chorus 2x
[00:48] Chorus End

[00:57] Verse 4x
[01:21] Chorus 2x
[01:33] Chorus End
Repeat Block Above

[02:27] Verse 3x
[02:24] Outro

		
Scroll