The Smiths & Morrissey Bass Tabs

Well I Wonder

(Morrissey/Marr)
			
Intro (High Part)
G |-7-7---7-7---11\--7-7---7-6------|-----------------6-6-------------||
D |------------------------------7--|-9-9---9-9---7---------7-9---7---||
A |---------------------------------|---------------------------------||
E |---------------------------------|---------------------------------|| 3x

Intro (Low Part)
G |---------------------------------|---------------------------------||
D |---------------------------------|---------------------------------||
A |-2-2---2-2-------2-2---2-0-------|---------------------------------||
E |-------------2---------------2---|-3-3---3-3---2---5-5---2-3---2---|| 3x

Verse A
G |---------------------------------|---------------------------------|
D |---------------------------------|---------------------------------|
A |-2-2---2-2---0---2-2---2-2---4-5-|-----------------0---2-----------|
E |---------------------------------|-3-3---3-3-3-2-3-------2-3---5---|

Verse B
G |---------------------------------|----------(4-7)------------------|
D |---------------------------4-7-4-|-----------------4---------------|
A |-5-----5-5-------5-----5-5-------|-5-----5-------2-------5-------4-|
E |-----------5-2-5-----------------|-------------------------2-2-2---|

Verse C
G |---------------------------------|---------------------------------|
D |-2-----2---------2-----2-2-4-5-7-|-----------5---------------------|
A |---------2---5-2-----------------|-----------------0---2-----------|
E |---------------------------------|-3-----3-3---2-3-------2-3---5---|

Verse D (Gasping, but somehow still alive...)
G |---------------------------------|---------------------------------|
D |---------------------------------|---------------------------------|
A |-5-5---5-5-------------------4---|-2-2---2-2---0-------------------| *) 1st time only
E |-------------5---2-2---2-2-------|-------------2*--3-3---3-3-5-5---|

Verse E
G |-------------------------------7-|---------------------------------|
D |-2-----2---------2-----2---------|-5-----5-------------------------| 
A |---------2---2-5---------2-2-5---|---------5-----5-0-----0---------|
E |---------------------------------|-------------------------3---5---|

Verse F
G |---------------------------------|---------------------------------|
D |-2-----2---------2-----2---------|-5----(5)------------------------| 
A |---------2---2-5---------2~~-----|---------5-----5-0-----0---------|
E |---------------------------------|-------------------------3---5---|

Order:
[00:00] Intro
[00:23] [Rest]
[00:30] Verse A,B,A
[00:54] Verse C 2x

[01:09] Intro
[01:17] Verse D,E 2x
[01:47] Verse C

[01:54] Intro 2x
[02:09] Verse D,E
[02:24] Verse D,F,C,F
[02:55] Intro 7x

		
Scroll