The Smiths & Morrissey Bass Tabs

Vicar In A Tutu

(Morrissey/Marr)
			
Verse
G |---------------------------------||
D |---------------------------------||
A |---7---7-----------7-7-----------||
E |-0-------4--5--7-0-----0-4--5--7-|| 4x

Chorus
G |---------------------------------|---------------------------------|
D |---------------------------------|---------------------------------|
A |-4-------4---2-3-4-------4-------|-----------------2-------2---2/9-|
E |-----4-----4---------4-----0-4-7-|-5---0---5-0-4-5-----2-----------|

Outro
G |---------------------------------|---------------------------------|
D |---------------------------------|---------------------------------|
A |-4-------4---2-3-4-------4-------|-----------------2-------2---2-3-|
E |-----4-----4---------4-----0-5-7-|-5---0---5-0-4-5-----2-----2-----|

Order:
[00:00] Verse
[00:16] Chorus
Repeat another 4 times

[01:55] Outro 4x


		
Scroll