The Smiths & Morrissey Bass Tabs

Unloveable

(Morrissey/Marr)
			
Intro
G |----------------------/4---2-----|
D |-----------------------------4-2-|
A |---------------------------------|
E |---------------------------------|

Main Riff
G |---------------------------------|
D |-----4-7-------------------------|
A |-5-------3-3-2-0-----2-5-----5-7-| (Skip that last note before Break)
E |-----------------3---------5-----|

Break
G |---------------------------------|---------------------------------|
D |-----------4---------------------|-----------2---------------------|
A |-------4-------5-------2---5---2-|-------2---------2---------------|
E |-2---------------3---------------|-0---------------------3-3-5-5-5-|

Outro
G |-----4---------------4-----------|
D |---------------------------------|
A |-2---------------2---------------|
E |-------3-355-5-2-------3-3-5-5-2-|

Order:
[00:15] Intro
[00:20] Main Riff A 10x
[01:00] Break
[01:10] Main Riff A 4x
[01:29] Break
[01:39] Main Riff A 10x
[02:29] Break
[02:39] Main Riff A 4x
[02:58] Break
[03:00] Outro (Repeat last bar until fade)

		
Scroll