The Smiths & Morrissey Bass Tabs

Unhappy Birthday

(Morrissey/Marr)
			
Verse
G |---------------------------------|---------------------------------|
D |------------------3--x-3---------|-------------------5-------------|
A |-5---3---0------------------0----|-1-----------------------3-x-4---|
E |-----------(1)1------------------|-----3---1---3-1-------3---------|

G |---------------------------------|---------------------------------||
D |------------------3--x-3---------|-------------------5-------------||
A |-5---3---0------------------3----|-1-----------------------3-x-4---||
E |-----------(1)1------------------|-----3---1---3-1-------3---------|| 2x

G |---------------------------------|---------------------------------|
D |------------------3--x-3---------|---------------------------------|
A |-5---3---0------------------0----|-5-------------------------------|
E |-----------(1)1------------------|----------------3----------------|

Break
G |---------------------------------|---------------------------------|
D |---------------------------------|------------------------/3---5---|
A |-5-------------------------------|-3-------------------------------|
E |---------------------------------|---------------------------------|

G |----------------/7---------------|---------------------------------|
D |--------------------(5)-(3)-(5)--|---------------------------------|
A |-5-------------------------------|-0-----------3-------------------|
E |---------------------------------|---------------------------------|

Order:
[00:07] Verse
[00:32] Verse End
[00:35] Break 2x
[01:03] Verse
[01:28] Verse End
[01:31] Break 2x
[02:01] Verse until end

		
Scroll