The Smiths & Morrissey Bass Tabs

This Night Has Opened My Eyes

(Morrissey/Marr)
			
Intro
G |-----|
D |-----|
A |-----|
E |-2---|

Verse
G |---------------------------------|---------------------------------|
D |-----4---5-----------------------|-----4h5p4-----------------------|
A |-2-------------------------------|-2-------------------------------|
E |-------------2---------------2---|-------------2---------------5---|

G |---------------------------------|---------------------------------|
D |---------------------------------|---------------------------------|
A |-----0---2---5-------0---5-------|---------2---0-------------------|
E |-3---------------------------2---|-3---------------------------2---|

Chorus
G |------------/4-------7-------4---||    |---------------------------------|---------------------------------|
D |-2-------------------------------||    |------------/4-------7-------4---|---------------------------------|
A |---------------------------------||    |-2-------------------------------|-0~~-----------------5---4-------|
E |---------------------------------|| 2x |---------------------------------|---------------------------------|

Post Chorus
G |---------------------------------|---------------------------------|
D |---------------------------------|---------------------------------|
A |-----0---2---5-------0---5-------|-0---0---------------------------|
E |-3---------------------------2---|-------------3-------3---3---0---|

G |------------/4-------7---4-------|---------------------------------|
D |-2-------------------------------|---------------------------------|
A |---------------------------------|---------------------5---4-------|	
E |-----------------------------0---|-3-------2---5-------------------|

End Chorus
G |------------/4-------7---4\------|---------------------------------|---------------------------------|
D |-2-------------------------------|-----5-p-4-----------------------|---------------------------------|
A |---------------------------------|-------------2---5-----0~~-------|---------------------------------|
E |---------------------------------|-3-------------------------------|-----------------------------2---|

Order:
[00:00] Verse 2x
[00:20] Chorus
[00:30] Verse 2x
[00:49] Chorus
[00:58] Post Chorus 2x (The Dream Has Gone...)
[01:18] End Chorus (And I'm Happy...)

[01:25] Verse 2x
[01:44] Chorus
[01:54] Post Chorus 2x
[02:13] End Chorus (And I'm Happy...)

[02:15] Pre Chorus 2x 
[02:40] End Chorus (And I'm Happy...)
Repeat above until fade


		
Scroll