The Smiths & Morrissey Bass Tabs

This Charming Man (Alt. Version)

(Morrissey/Marr)
			
Verse
G |---------------------------------|-------------------------4---6---|
D |---------------------------------|---------------2---2---2---2-----|
A |-0-----0-0-----0---0---0-2-0-4---|-0-----0-0-----------------------|
E |---------------------------------|---------------------------------|
                                                                         Alt. Verse (Play before Chorus)
G |---------------------------------|---------------------------------| |---------------------------------|
D |-------------------------4---6---|-------------------------4---2---| |---------------------------------|
A |-2-----2-2-----2---2---2---2-----|-5-----5-5-----4---4---4---4-----| |-5-----5-5-----4---4---4-4-----4-|
E |---------------------------------|---------------------------------| |---------------------------------|

Chorus
G |---------------------------------|---------------------------------|
D |-----------------2---4---6---4-2-|---------------------------------|
A |-5-5-4---2---0-------------------|-----------------2---4---5---4---|
E |---------------------------------|-2---4---5---4-------------------|

                                        Chorus Ending
G |---------------------------7h9---| |---------------------------------||
D |---------------------------------| |-----4---4-4-------------2---2---||
A |-5-5-4---2---0---2\--5h7---------| |---------------------------------||
E |---------------------------------| |-2-----2-------2---2---2---2-----|| 1 or 2x

Alt. Chorus Part (Play at [01:12] instead of the 3rd bar of the Chorus)
G |---------------------------------|
D |---------------------------------|
A |-5---4---2---0---2-------2-2-2---|
E |-----------------------2---------|

End of Song
G |-----------------9---9-----------|
D |-----4---4-4/9-------------------|
A |---------------------------------|
E |-2-----2-------------------------|

Order:
[00:00] Verse 6x
[00:57] Chorus | Chorus Ending | Alt. Chorus Part | Chorus Ending 2x
[01:18] Verse 4x
[01:58] Chorus | Chorus Ending | Chorus | Chorus Ending 2x
[01:58] Chorus | Chorus Ending | Chorus | Chorus Ending 2x
[02:39] End of Song

		
Scroll