The Smiths & Morrissey Bass Tabs

This Charming Man

(Morrissey/Marr)
			
Intro
G |---------------------------------|---------------------------------|
D |---------------------------------|-------------------------4---2---|
A |-2---2---2-----2---2-----2---4---|-5---5---5-----4---4---4---4-----|
E |-----------------------2---------|---------------------------------|

G |---------------2---2-------------|---------------------------------|
D |-----------------------2h4---2---|---------------2---(Stop)--------|
A |-0---0---0-----------------------|-0---0---0---0-------------------|
E |---------------------------------|---------------------------------|

G |---------------------------------|---------------------------------|
D |---------------------------------|-------------------------4---2---|
A |-2---2---2-----2---2-----2---4---|-5---5---5-----4---4---4---4-----|
E |-----------------------2---------|---------------------------------|

Verse
G |---------------2---2-------------|-------------------------4---6---|
D |-----------------------2h4---2---|---------------2---2---2---------|
A |-0---0---0-----------------------|-0---0---0---0-------------------|
E |---------------------------------|---------------------------------|
                                                                         Verse End (Play right before Chorus)
G |---------------------------------|---------------------------------| |---------------------------------|
D |-------------------------4---6---|-------------------------4---2---| |---------------------------------|
A |-2---2---2-----2---2---2---------|-5---5---5-----4---4---4---4-----| |-5---5---5-----4---4---4-4-------|
E |---------------------------------|---------------------------------| |---------------------------------|

Chorus
G |---------------------------------|---------------------------------|-------------------------7h9-----|
D |-----------------2---4---6---4---|---------------------------------|---------------------------------|
A |-5---4---2---0-------------------|----------(4)4---2---0-----------|-5---4---2---0---2\--7h9---------|
E |-------------------------------2-|-2~~---------------------4---2---|---------------------------------|

Chorus Ending                          End of Song
G |---------------------------------| |---------------9-----------------|
D |-----4---4-4-------------2---2---| |-----4---4-4/9-------------------|
A |---------------------------------| |---------------------------------|
E |-2-----2-------2---2---2---2-----| |-2-----2-------------------------|

Order:
[00:04] Intro
[00:19] Verse 6x
[01:04] Chorus | Chorus Ending | Chorus | Chorus Ending 2x
[01:25] Verse 4x
[02:01] Chorus | Chorus Ending | Chorus | Chorus Ending
[02:21] Chorus | Chorus Ending | Chorus | Chorus Ending 2x
[02:39] The End

		
Scroll