The Smiths & Morrissey Bass Tabs

These Things Take Time (Alt. Version)

(Morrissey/Marr)
			
Bridge
G |---------------------------------|---2-------4-------2-------------|
D |---2-------4-------2-------------|-0---2-0-2---2-0-2---0-2---2---2-|
A |-0---2-0-2---2-0-2---0-2---2---2-|---------------------------------|
E |---------------------------------|---------------------------------|

Verse
G |---------------------------------|---------------------------------||
D |-----4-----4---2---2---2---2-----|-----------------------2---2---2-||
A |-------4-----4---------------2-4-|-2-------2-2---4---4-------------||
E |-2-2-----2-----------------------|-------2-------------------------|| 4x

Chorus
G |---------------------------------|---------------------------------|
D |---------------------------------|---------------------------------|
A |-------------4-0-2---2---2-2-4-0-|-0---0---0-0-4-0-2---2---2-2-4-0-|
E |-2---2---2-2---------------------|---------------------------------|

G |---------------------------------|---------------------------------|---------------------------------|
D |---------------------------------|---------------------------------|---------------------------------|
A |-------------4-0-2---2---2-2-4---|-0-x-x-5-x-x-0-------------------|-0-x-x-5-x-x-7--------------2/10\|
E |-2---2---2-2---------------------|---------------------------------|---------------------------------|

Order:
[00:00] Bridge

[00:10] Verse 4x
[00:31] Bridge
[00:39] Chorus
Repeat above 3 times

		
Scroll