The Smiths & Morrissey Bass Tabs

These Things Take Time

(Morrissey/Marr)
			
Bridge
G |---------------------------------|-------------------2-------------|
D |-------------------4-------------|-0-------2-------0---0-2---2-----|
A |-0-------2-------0---0-2---2---0-|-------2-------2---------------2-|
E |-------2-------2-----------------|---------------------------------|

Verse
G |---------------------------------|---------------------------------||
D |---------------2---2---2---2-----|-----------------------2---2---2-||
A |---------4---4---------------2-4-|-2-------2-2---4---4-------------||
E |-2-----2---2---------------------|-------2-------------------------|| 4x

Chorus
G |---------------------------------|---------------------------------|
D |---------------------------------|---------------------------------|
A |-------------4-0-2---2---2-2-4-0-|-0---0----0-0-4-0-2---2--2-2-4-0-|
E |-2---2---2-2---------------------|---------------------------------|

G |---------------------------------|---------------------------------|---------------------------------|
D |---------------------------------|---------------------------------|---------------------------------|
A |-------------4-0-2---2---2-2-4---|-0-x-x-5-x-x-0-------------------|-0-x-x-5-x-x-7---------------9\--|
E |-2---2---2-2---------------------|---------------------------------|---------------------------------|

Order:
[00:00] Bridge

[00:06] Verse
[00:29] Bridge
[00:35] Chorus
Repeat this

		
Scroll