The Smiths & Morrissey Bass Tabs

There Is A LIght That Never Goes Out

(Morrissey/Marr)
			
Intro
G |---------------------------------|
D |---------------------------------|
A |-9~~-------------0-0-0-0---2-2---|
E |-------------------------------2-|

Verse
G |---------------------------------|---------------------------------||
D |---------------------------------|-----------------2---------------||
A |-4---4---2-------4-4---2---2---2-|-0-----0-0---------2-4-2---2---2-||
E |-------4-----4-2-----4-------4---|-------------4-2-------------4---|| 8x

Chorus
G |---------------------------------|---------------------------------|
D |-2-2-----2-2---------------------|---------------------------------|
A |-------2-------2-4-4-----4-4-----|-0-0-----0-0---0---0---0-0-2-4---|
E |-----------------------4-------4-|-------4-------------------------|
                                                                         Alt. Ending
G |---------------------------------|-------------------------4-------| |---------------------------------|
D |-------------1-2---2---2---2-----|---------------------4h6---6-----| |---------------------4/6---4-----|
A |-2-----2-2-4-----------------4-2-|-0-----0-0---0-------------------| |-0-----0-0---0-------------------|
E |---------------------------------|---------------2-----------------| |---------------2-----------------|

Order:
[00:00] Intro
[00:04] Verse
[01:00] Intro
[01:04] Chorus 2x
[01:32] Verse
[02:28] Intro
[02:32] Chorus 2x
[03:00] Verse Until Fade

		
Scroll