The Smiths & Morrissey Bass Tabs

The Queen Is Dead

(Morrissey/Marr)
			
Intro
G |---------------------------------|---------------------------------|
D |-------5---5---------------------|-----------------------2---2-----|
A |---------------------/12--12-----|-----6-------6---------------2-4-|
E |-3-------------0-5------------(3)|-4-4---4---4---4-3-3-3-----------|

Verse A                                Verse B
G |-----2-----4-----2-----4---------| |-----2-----4-----2-----4---------|
D |---------------------------------| |---------------------------------|
A |-2-----2-2---2-2---2-2-------0-2-| |-2-----2-2---2-2---2-2-----2-7-6-|
E |---------------------------2-----| |---------------------------------|

Verse C                                Verse D
G |-----2-----4-----2-----4-----8-8-| |-----2-----4-----2-----4---------|
D |---------------------------------| |-----------------------------4-2-|
A |-2-----2-2---2-2---2-2-----------| |-2-----2-2---2-2---2-2-----2-----|
E |---------------------------------| |---------------------------------|

Break
G |---------------------------------|
D |---------------------------------|
A |-5-----5-----5---7---------------|
E |-----------5---5---7---5---4---3-|

Instrumental
G |---------------------------------|---------------------------------|
D |---------------------------------|-----------------------2---2-----|
A |-----5-------5-------/12---12----|-----6-------6---------------2-4-|
E |-3-3---3---3---3-5-------------3-|-4-4---4---4---4-3-3-3-----------|

Order:
[00:36] Intro
[00:43] Verse A,A,B | Break
[00:56] Verse C,A,B | Break
[01:10] Instrumental
[01:17] Verse A,A,D | Break
[01:31] Verse A,C,B | Break
[01:44] Instrumental
[01:51] Verse A,C,B | Break
[02:05] Verse C,A,B | Break
[02:18] Instrumental
[02:26] Verse A,C,B | Break
[02:39] Verse A,A,B | Break
[02:53] Instrumental
[03:00] Verse A,C,B | Break
[03:13] Verse A,A,B | Break
[03:27] Instrumental
[03:34] Verse C,A,B | Break <span class="TABLYR">(Life is very long...)</span>
[03:47] Verse C,C,B | Break <span class="TABLYR">(Life is very long...)</span>
[04:01] Verse A,A,B | Break <span class="TABLYR">(Life is very long...)</span>
[04:15] Verse A,C,B | Break <span class="TABLYR">(Life is very long...)</span>
[04:28] Verse C,A,B | Break <span class="TABLYR">(Life is very long...)</span>
[04:42] Verse A,A,B | Break <span class="TABLYR">(A nice Tambourain)</span>
[04:56] Verse A,C,B | Break 
[05:10] Verse A,C,B | Break
[05:24] Verse A,C,B | Break <span class="TABLYR">(Bass only- almost)</span>
[05:37] Verse C,A,B | Break <span class="TABLYR">(Drums/Guitar come in again)</span>
[05:50] Verse A,A,B | Break 
[06:05] Verse A,C,B


		
Scroll