The Smiths & Morrissey Bass Tabs

The Hand That Rocks The Cradle

(Morrissey/Marr)
			
Le Intro
G |---------------------------------|-11/-------------13\-------------|
D |-11------------------------------|---------------------------------|
A |---------------------------------|---------------------------------|
E |---------------------------------|---------------------------------|

Main Line
G |---------------------------------|---------------------------------|
D |-------------2---------------2---|-0---0---------------------------|
A |-0---0---------------0-----------|---------2---0-------2-------4---|
E |---------2---------------2-------|---------------------------------|

Order:
[00:00] Le Intro 2x
[00:08] Main Line
Repeat a few times (I don't know, really)


		
Scroll