The Smiths & Morrissey Bass Tabs

The Draize Train (Studio Version)

(Marr)
			
Intro
G |---------------------------------|---------------------------------|
D |---------------------------------|---------------------------------|
A |-3---------------3---------------|-0-----------5-------------------|
E |---------------------------------|---------------------------------|

G |---------------------------------|---------------------------------|
D |---------------------------------|---------------------------------|
A |---------------------------------|---------------------------------|
E |-0-------------------------------|---------------------------------|

G |---------------------------------|---------------------------------|
D |---------------------------------|---------------------------------|
A |-3---------------3---------------|-0-----------5-------------------|
E |---------------------------------|---------------------------------|

Main Riff
G |---------------------------------|---------------------------------|
D |---------------------------------|---------------------------------|
A |-----5---7-----------------------|-----5---7-----------------------| (All notes probably slapped)
E |-0-----------0---0---0-0---0-3---|-0-----------0---0---0-0---0-3---|

Riff 2
G |-----5p--5p------------5p--5p----|-----7p--7p------------7p--------| (High notes probably popped)
D |---------------------------------|---------------------------------|
A |-3-------------------------------|-5-------------------------------| (Low notes probably slapped)
E |-----------------3---------------|-----------------5---------------|

Break
G |---------------------------------|---------------------------------|
D |---------------------------------|---------------------------------|
A |---------------------------------|---------------------------------|
E |-5---5---5---5-5-5---5-5---3-----|-5---5---5---5-5-5---5-5---3-----| (All notes probably slapped)

Break End
G |---------------------------------|---------------------------------|
D |---------------------------------|---------------------------------|
A |-3-------------3-----------------|---------------------------------|
E |---------------------------------|-5-------------5-----------------|

Order:
[00:02] Intro
[00:13] Main Riff 4x

Main Block:
[00:29] Main Riff 4x
[00:52] Riff 2
[00:56] Main Riff
[01:00] Riff 2
[01:04] Main Riff

[01:08] Repeat Block
[01:39] Break 3x | Break End
[01:55] Main Riff 2x
[02:01] Repeat Block Again
[02:30] Intro (1 bar only)</span> | Main Riff | Intro (1 bar only) | Main Riff
[02:45] Riff 2 | Main Riff | Riff 2 | Main Riff
[03:01] Break 4x <span class="TABLYR">(Solo part)</span>

[03:20] Riff 2 | Main Riff | Riff 2 | Main Riff
Repeat this until end



		
Scroll