The Smiths & Morrissey Bass Tabs

The Draize Train (Live)

(Marr)
			
Intro
G |---------------------------------|---------------------------------|
D |---------------------------------|---------------------------------|
A |---------------------------------|---------------------------------|
E |-0-------------------------------|---------------------------------|

G |---------------------------------|---------------------------------|
D |---------------------------------|---------------------------------|
A |-3-------------------------------|-0-------------------------------|
E |---------------------------------|---------------------------------|

Main Riff
G |---------------------------------|---------------------------------|
D |---------------------------------|---------------------------------|
A |-----5---7-----------------------|-----5---7-----------------------| (All notes slapped)
E |-0-----------0---0---0-0---0-3---|-0-----------0---0---0-0---0-3---|

Riff 2
G |-----5p--5p------------5p--5p----|-----7p--7p------------7p--------| (High notes popped)
D |---------------------------------|---------------------------------|
A |-3-------------------------------|-5-------------------------------| (Low notes slapped)
E |-----------------3---------------|-----------------5---------------|

Break
G |---------------------------------|---------------------------------|
D |---------------------------------|---------------------------------|
A |---------------------------------|---------------------------------|
E |-5---5---5---5-5-5---5-5---3-----|-5---5---5---5-5-5---5-5---3-----| (All notes slapped)

Break End
G |---------------------------------|---------------------------------|
D |---------------------------------|---------------------------------|
A |-3-------------3-----------------|---------------------------------|
E |---------------------------------|-5-------------5-----------------|

Order:
[00:04] Intro
[00:12] Main Riff 4x

Main Block:
[00:27] Main Riff 4x
[00:43] Riff 2
[00:47] Main Riff
[00:51] Riff 2
[00:55] Main Riff

[00:59] Repeat Block
[01:30] Break 3x | Break End
[01:46] Repeat Block
[02:17] Break 4x 

[02:xx] Riff 2 | Main Riff
Repeat Many times

[04:00] Break End


		
Scroll