The Smiths & Morrissey Bass Tabs

The Boy With The Thorn In His Side

(Morrissey/Marr)
			
Intro
G |---------------------------------|---------------------------------|
D |---------------------------------|---------------------------------|
A |-3---3-3---3-3---3-5---5---0-----|-3---3-3---3-3---3-5---5---0-----|
E |---------------------------------|---------------------------------|

G |---------------------------------|---------------------------------|---------------------------------|
D |---------------------------------|---------------------------------|---------------------------------|
A |-3-------------------------------|-5---------------3-------5-------|---------------------------------|
E |-------------3---3-------0---3---|---------------------------------|-3-------------------------------|

Chorus
G |---------------------------------|---------------------------------|
D |-------------------------5---7---|-----------------------------2---|
A |-5-----------5---5---5-----------|-0-----0-3---0-------0---3-------|
E |---------------------------------|---------------------------------|

G |---------------------------------|---------------------------------|
D |---------------------------------|---------------------------------|
A |-3-----------5-------------------|---------------------0---0-------|
E |-------3-------------5---3---5---|-3-----------3-------------------|

G |---------------------------------|---------------------------------|
D |-------------------------5---7---|-----------------------------2---|
A |-5-----5-----5-------5-----------|-0-----0-3---0-------0---3-------|
E |---------------------------------|---------------------------------|

Chorus Endings 1 and 2</span>
G |--------------------------------|  |---------------------------------|
D |---------------------4----------|  |---------------------------------|
A |-3-----------5------------------|  |-3-----------5-------------------|
E |-------3-----------------0---2--|  |-------3-------------5---0---2---|

Verse
G |---------------------------------|---------------------------------|
D |---------------------------------|-------------------------5---7---|
A |---------------------0---0-------|-5---5-5-----5-------5-----------|
E |-3---3-3-----3-------------------|---------------------------------|

G |---------------------------------|---------------------------------|
D |-----------------------------2---|-------2-------------------------|
A |-0---0-3-----0-------0---3-------|-3-----------5-------------------|
E |---------------------------------|-------3*------------5---0---2---| *) Play 3rd time

Verse Alternate Ending (Replaces Last Bar)
G |---------------------------------|
D |-------2-----4-------------------|
A |-3-------------------------------|
E |---------------------5---0---3---|

Order:
[00:00] Intro
[00:10] Chorus + Ending 1
[00:24] Verse 4x (End with Alt. Ending)

[00:56] Intro
[01:06] Chorus + Ending 1
[01:21] Verse 4x (End with Alt. Ending)

[01:53] Intro
[02:03] Chorus Until End (Use Chorus Ending 2)


		
Scroll