The Smiths & Morrissey Bass Tabs

That Joke Isn't Funny Anymore

(Morrissey/Marr)
			

Drum Roll Intro
G |--------------------------|
D |--------------------------|
A |--------------------------|
E |----(drums)-----------2-2-| (Just the last two notes of the End Verse)

Verse
E |--------------------------|---------------------4----|--------------|
D |--------------------7-----|-------7----------/6---6--|-5------------|
A |--------------------------|-------------2------------|-----5--------|
E |-2-4-4---2-4-5------------|-5------------------------|-------5------|

End Verse
E |--------------------------|--------------------------|
D |-----------------------1--|-2------------------------|
A |-2-----------2-------4----|--------------------------|
E |-----------2--------------|-------2---3-4-------2-2--|

Chorus
E |--------------------------|--------------------------||
D |--------------------------|--------------------------||
A |-------------5h7-77775-7--|-----------------5-5-57---||
E |-3-------2-3--------------|-3---235-5-3-5----7-7-----|| 2x

End Chorus
E |--------------------------|---------4----------------|
D |--------------------------|------/6---6-5------------|
A |--------------------------|-2---------------5--------|
E |-3-------2-5-3-------2-5--|-------------------5------|

Break
E |-----------4---------7-6--|--------------------------|
D |--------/6---6------------|---------------------6----|
A |--------------------------|-0------4-7-5----5-7---7--|
E |-7-------------2----------|----------------7-7-------|

Order:
[00:06] Drum Roll Intro
[00:08] Verse | End Verse
[00:27] Verse
[00:37] Chorus (But that joke isn't funny anymore...)
[00:53] End Chorus (More than you'll ever know...)
[01:02] Break 4x (Kick them when they fall down...)

[01:35] Chorus <span class="TABLYR">(It was dark...)
[01:52] End Chorus <span class="TABLYR">(After all..)

[02:00] Break until end (I've seen this happen...)


		
Scroll