The Smiths & Morrissey Bass Tabs

Sweet And Tender Hooligan

(Morrissey/Marr)
			
Main Riff
G |---------------------------------|---------------------------------|
D |---------------------------------|---------------------5-5-3-3-0-0-|
A |-5-5-3-3-0-0-3-3-5-5-3-3-0-0-3-3-|-1(1)1-1-1-----------------------|
E |---------------------------------|-----------0-1-3---3-------------|

G |---------------------3-------5---|-----7---7h5---7-----------------|
D |-----7---5h7-------3-------5-----|---------------------------------|
A |-0-------------0-1-------3-------|-5-----------------3-3---3-0-3-0-|
E |---------------------------------|---------------------------------|

Order:
[00:07] Play it over and over again

		
Scroll