The Smiths & Morrissey Bass Tabs

Suffer Little Children

(Morrissey/Marr)
			
Intro
G |---------------------------------|
D |-x-------x-------x-------x-------|
A |---------------------------------|
E |-------------------------------5-|

Verse
G |---------------------------------|---------------------------------|
D |---------------------------------|---------------------------------|
A |-5---7-------4---5---7-------4---|-5---7-----------------5---5-4---|
E |-------5---5---5-------5---5---5-|-------5---5-7---7-------------5-|

Bridge
G |---------------------------------|---------------------------------||
D |-------2---2---------------------|---2-4-----4-4---------2---2-2---||
A |-2-2-0---------------5-----4-5-4-|---------------4-5---4---------0-||
E |-------------2-3-4-4---3---------|-5-----2-------------------------|| 2x

Order:
[00:00] Intro | Verse

[00:12] Verse 2x
[00:31] Bridge
Repeat above


		
Scroll