The Smiths & Morrissey Bass Tabs

Stretch Out And Wait

(Morrissey/Marr)
			
[00:00] Intro
G |-------4-----------------|-------9h8---------------|
D |-----46----------------4-|-----------6-------------|
A |-7---------------4-2-----|-------------0---4-2---6-|
E |---------2-4-5-----------|-4-----------------------|

G |-------4-----------------|-------9h8---------------||
D |-----46----------------4-|-----------6-----------6-||
A |-7---------------4-2-----|-------------0---4-2-----||
E |---------2-4-5-----------|-4-----------------------|| 3x

G |-------4-----------------|-------9h8---------------|
D |-----46----------------4-|-----------6-------------|
A |-7---------------4-2-----|-------------0---4-2---6-|
E |---------2-4-5-----------|-4-----------------------|

G |-------4-----------------|-------9h8---------------|-------------------7h9---|
D |-----46----------------4-|-----------6-----2-1-----|-----------------57------|
A |-7---------------4-2-----|-------------0---------2-|-3-----------3-----------|
E |---------2-4-5-----------|-4-----------------------|---------2-3-------------|

[00:55] Chorus
G |-------------------------|---------4---------------|
D |-------2-----------------|-------------------------|
A |-4-----------4-----2-----|-4-----4---------4-2-----|
E |-------------------------|-----------4-5-----------|

G |-------------------------|-------------------------|
D |-----------------------2-|-1-----------2-----4--\--|
A |-------4-----2-----------|-------2---------4-------|
E |-5-----------------------|-------------------------|

G |-------------------------|---------4---------------|
D |-------2-----------------|-------------------------|
A |-4-----------4-----2-----|-4-----4---------4-2-----|
E |-------------------------|-----------4-5-----------|

[01:19] Post-Chorus (As we lay you say...)
G |-------------------------|-------------------------|
D |-----------2---------2-1-|-----------6-4-----------|
A |-------4-----2-----------|-4-----------------------|
E |-5-----------------------|---------------------2-4-|

G |-------------------------|-------------------------||
D |-----------2---------2-1-|-----------6-4-----------||
A |-------4-----2-----------|-4-----------------------||
E |-5-----------------------|-------------------2---4-|| 2x

G |-------------------------|-------------------------|
D |-----------2-----------6-|-4-----------------------|
A |-------4-----2-------7---|-------------0-----2-----|
E |-5-----------------------|-----------2-------------|

[01:51] Chorus (But play melody of Intro)
G |-------4-----------------|-------9h8---------------||
D |-----46----------------4-|-----------6-----------6-||
A |-7---------------4-2-----|-------------0---4-2-----||
E |---------2-4-5-----------|-4-----------------------|| 2x

[02:07]
G |-------4-----------------|-------------------------|  |-------4-----------------||
D |-----46------------------|-------------------------|  |-----46------------------||
A |-7---------------4-2-----|-------6---------4-2-----|  |-7---------------4-2---6-||
E |---------2-4-5-----------|-4-----------4-----------|  |---------2-4-5-----------|| 3x

G |-------------------------|-------------------------|
D |-------------------------|-------------------------|
A |-4---------6-4-----------|-------------------------|
E |-------------------(2)-4-|-5-----------------------|

		
Scroll