The Smiths & Morrissey Bass Tabs

Stop Me If You Think You've Heard This One Before

(Morrissey/Marr)
			
Chorus
G |----(5)--5-----------------------|---------------------------------||
D |---------------------5---5-------|-1-------1-----------3---3-------||
A |-1\3-----------5---------------1-|-------1-------1-----------------||
E |-------------------3-------------|-------------------1-------------|| 4 or 6x

Break
G |---------------------------------|---------------5-----------------|
D |---------------6-----------------|-----------5---------------------|
A |-----------6---------------------|-3-------------------------------|
E |-4-------------------------------|---------------------------------|

G |---------------------------------|---------------------------------|
D |---------------6-----------------|---------------------------------|
A |-----------6---------------------|---------------------------------|
E |-4-------------------------------|-6-6-6-6-6-6-6-6-3-3-3-3-3-3-3---|

Order:
[00:00] Intro
[00:21] Chorus 6x
[00:50] Break
[01:04] Chorus 4x
[01:33] Break
[01:46] Chorus 4x
[02:16] Break
[02:31] Chorus until end


		
Scroll