The Smiths & Morrissey Bass Tabs

Still Ill

(Morrissey/Marr)
			
Verse
G |---------------------------------|---------------------------------||
D |---------6-----------4---4-6*----|-----4---4-2---------------------|| *) Hatful Of Hollow version seems to be a 2
A |-4---4/7---7---0---------------2-|---------------------------------||
E |---------------------------------|---------------5-----4-----2-----|| 3x

G |---------------------------------|---------------------------------|
D |---------6-----------4---4-6*----|-----4---4-2---------------------|
A |-4---4/7---7---0---------------2-|---------------------------2-4-2-|
E |---------------------------------|---------------5-----4-----------|

Bridge
G |---------------------------------|---------------------------------|
D |-------------4---2-----1---------|---------------------------------|
A |-4-6-----------------------4-2---|-0-0-0---0-0---0-2-2---2---2-4-2-|
E |-----4-----4---------------------|---------------------------------|

G |---------------------------------|---------------------------------|
D |-------------4---2-----1---------|---------------------------------|
A |-4-6-----------------------4-2---|-0-0-0---0-0---0-2-2---2---2-----|
E |-----4-----4---------------------|---------------------------------|

Chorus
G |---------------------------------|---------------------------------|
D |-2---2---2-----------------------|---------------------------------|
A |-----------2-4-0---0---0-------2-|---2--(2)------2---2--(2)--2-4-2-|
E |---------------------------2-4---|-----------2-4-------------------|

Order:
[00:12] Verse
[00:35] Bridge
[00:47] Verse
[01:12] Bridge
[01:22] Chorus | Bridge | Chorus | Bridge
Repeat Above


		
Scroll