The Smiths & Morrissey Bass Tabs

Some Girls Are Bigger Than Others (Live)

(Morrissey/Marr)
			
Verse A
G |-----------------|-----------------|
D |-3-3-----3-5-6---|-----------------|
A |-------3-------4-|---4---4-6---7---|
E |-----------------|-----------------|

Verse B
G |-----------------|-----------------|-----------------|
D |-3-3-----3-3-----|-----------------|-----------------|
A |-------3---------|-6-6-----6-6-----|-4-4-----4-4-----|
E |---------------6-|-------6-------4-|-------4-------4-|

G |-----------------|-----------------|-----------------|
D |-----------------|-----------------|-----------3-6(5)|
A |-----------------|-3-----3-3-----3-|---3---3---------|
E |-6-6---6-6-4-6-4-|-----------------|-----------------|

Verse Ending
G |-----------------|-----------------|
D |---------------6-|---6---6-6-------|
A |-----------------|-------------5h6-|
E |-4~~-------------|-----------------|

Outro
G |-----------------|-----------------|
D |-3--------3------|-----------------|
A |-----3-------3-4-|---4-----6---7---|
E |-----------------|-----6-4---------|

Final Bit
G |-----------------|-----------------|-----------------|
D |-3---------------|-----------------|-3---------------|
A |-----------------|-6---------------|-----------------|
E |-----------------|-----------------|-----------------|

Order:
[00:00] <span class="TABLYR">"Good Taste"/Guitar Tweaks</span>
[00:13] Guitar Intro
[00:22] Verse A,B,A,B,A,B
[00:57] Verse A 3x
[01:05] Verse Ending

[01:08] Verse B,A,B,A,B,A,B
[01:51] Verse A 3x
[02:00] Verse Ending

[02:03] Verse B,A,B,A,B,A,B
[02:47] Verse A 3x
[02:56] Verse Ending

[02:59] Verse B,A,B,A,B,A,B
[03:3?] Verse A,B <span class="TABLYR">(Send me the pillow...)</span>
[03:4?] Verse A 3x
[03:51] Verse Ending

[03:56] Verse A 4x
[04:05] Outro

[04:40] Final Bit


		
Scroll