The Smiths & Morrissey Bass Tabs

Some Girls Are Bigger Than Others

(Morrissey/Marr)
			

Verse A
G |-----------------|-----------------|
D |-----------------|-----------------|
A |-4-------4-6-7-0-|---0---0-2---3---|
E |-------4---------|-----------------|

Verse B
G |-----------------|-----------------|-----------------|
D |-----------------|-----------------|-----------------|
A |-4-------4-4-----|-2-2-----2-2-----|-0-0-----0-0-----|
E |-------4-------2-|-------2-------0-|-------0-------0-|

G |-----------------|-----------------|-----------------|
D |-----------------|-----------------|-----------------|
A |-----------------|-----------------|-----------4-7-6-|
E |-2-2---2-2-0-2-0-|-4-----4-4-----4-|---4---4---------|

Verse Ending
G |-----------------|-----------------|
D |---------------2-|---2---2-2-------|
A |-----------------|-------------2h3-|
E |-0~~-------------|-----------------|

Outro
G |-----------------|-----------------|
D |-----------------|-----------------|
A |-4-------4-----0-|---0-----2---3---|
E |-----4-------4---|-----2-0---------|

Order:
[00:00] Verse B (Fade in part)
[00:07] Verse A,B
[00:19] Verse A 3x
[00:28] Verse Ending

[00:31] Verse B,A,B,A,B
[01:04] Verse A 3x
[01:13] Verse Ending

[01:16] Verse B,A,B,A,B

[01:49] Verse A,B <span class="TABLYR">(Send me the pillow...)</span>
[02:00] Verse A 3x
[02:09] Verse Ending

[02:12] Verse A 4x
[02:24] Outro (Repeat 'Til End)


		
Scroll