The Smiths & Morrissey Bass Tabs

Shoplifters Of The World Unite

(Morrissey/Marr)
			
Intro
G |---------|
D |---------|
A |---------|
E |-3-3-3---|

Verse A
G |---------------------------------|---------------------------------||
D |---------------------------------|---------------------------------||
A |---------7---------------7-------|---------7-------------------5*--|| *) 2nd Time
E |-0-0-0-0---0-0-0-0-0-0-0---0-0-0-|-0-0-0-0---0-0-0-0-0-0-0-3---5---|| 3x

G |---------------------------------|---------------------------------|
D |---------------------------------|---------------------------------|
A |---------7---------------7-------|---------7-----------------------|
E |-0-0-0-0---0-0-0-0-0-0-0---0-0-0-|-0-0-0-0---0-0-0-0-0-0-0-0---2---|

Chorus
G |---------------------------------|-----------------||
D |---------------------------------|-----------------||    (Skip last bar, before Verse)
A |-------------0h2-3-----2-----0---|---------5-------||
E |-3--------(3)--------------------|-------------0---|| 4x

Verse B
G |---------------------------------|---------------------------------|
D |---------------------------------|---------------------------------|
A |---------7---------------7-------|---------7-----------------------|
E |-0-0-0-0---0-0-0-0-0-0-0---0-0-0-|-0-0-0-0---0-0-0-0-0-0-0-3---5---|

G |---------------------------------|---------------------------------||
D |---------------------------------|---------------------------------||
A |---------7---------------7-------|---------7---------------5(5)----||
E |-0-0-0-0---0-0-0-0-0-0-0---0-0-0-|-0-0-0-0---0-0-0-0-0-0-0-----5---|| 2x

G |---------------------------------|---------------------------------|
D |---------------------------------|---------------------------------|
A |---------7---------------7-------|---------7-----------------------|
E |-0-0-0-0---0-0-0-0-0-0-0---0-0-0-|-0-0-0-0---0-0-0-0-0-0-0-0---2---| At [01:37] Stop at last measure

Order:
[00:00] Play a 'G' note 3x.
[00:01] Verse A
[00:23] Chorus
[00:41] Verse B
[01:03] Chorus
[01:20] Verse B (Instrumental)
[01:43] Chorus until end


		
Scroll