The Smiths & Morrissey Bass Tabs

Sheila Take A Bow

(Morrissey/Marr)
			
Intro/Break End
G |-----------------|
D |-----------------|
A |-2---2---4---6---|
E |-----------------|
 
Verse
G |---------------------------------|---------------------------------|
D |---------------------------------|---------------------------------|
A |-7-------5-----7--------7--------|-----------------4---4---4---2h4-|
E |-----7-7-----5-----5---5--------4|h5-------5---7-------------------|

G |---------------------------------|---------------------------------|
D |---------------------------------|---------------------------------|
A |-7-------5-----5--------7--------|-----------------2---2---4---6---|
E |-----7-7-----5-----5---5--------4|h5-------5---6-------------------|

Chorus
G |---------------------------------|---------------------------------|
D |---------------------4*------4---|---------------------------------| *) Play this note at [01:41]
A |-7-------5-----5---------------3-|-3-------5-----7-----------------|
E |-----7-7-----5-----2-2---2-------|-----3-------5-----7h4---5---7---|

G |---------------------------------|---------------------------------|---------------------------------|
D |-----------------------------4---|---------------------------------|---------------------------------|
A |-7-------5-----5---------------3-|-3-------5-----7-----5---3-------|-3-------5-----7-----------------|
E |-----7-7-----5-----2-2---2-------|-----3-------5-----5-------------|-----3-------5-----5h4---5---7---|

Break                    
G |-----------------||
D |-----------------||
A |-2-----2-----0---||
E |---------2-------|| 3 or 5x

End of Song
G |-----------------|
D |-----------------|
A |-7-7-7-7-7-------|
E |-----------------|

Order:
[00:07] Break End
[00:09] Verse
[00:25] Chorus
[00:44] Break 3x | Break End
[00:52] Verse
[01:07] Chorus
[01:27] Break 5x | Break End
[01:41] Chorus* <span class="TABLYR">(Take My Hand...)</span>
[02:01] Chorus <span class="TABLYR">(Take My End...)</span>
[02:20] Chorus Replace Last Bar with End Bar


		
Scroll