The Smiths & Morrissey Bass Tabs

Shakespeare's Sister

(Morrissey/Marr)
			
Verse                                  Verse End
G |---------------------------------| |---------------------------------|
D |---------------------------------| |---------------------------------|
A |-------------5---7-----------5---| |-------------5---7---5---3---2---|
E |-0-----0-5h7-----------0-3-------| |-0-----0-5h7---------------------|

Bridge
G |---------------------------------|---------------------------------|
D |---------7-------7-----7-7-7-----|---------3-h-5-----------5h7h5---|
A |-0-------------------------------|-3---------------5---------------|
E |---------------------------------|---------------------------------|

Chorus
G |---------------------------------|---------------------------------|
D |---------------------------------|---------2---------------4-------|
A |-------------------------3---5---|-3-----3---3---------5-------5---|
E |-3-----3-----3-------3-----------|---------------------------------|

Break (Play twice as slow)
G |---------------------------------|---------------------------------|
D |-------------------------------2-|-3-------------------------------|
A |-3---------------3---------------|---------------------------------|
E |---------------3-----------------|---------------0-1---------------|

G |---------------------------------|---------------------------------|
D |---------------------------------|---------------------------------|
A |-5-----------------------------3-|-5-------------------------------|
E |---------------1-3---------------|---------------1-3---------------|

Order:
[00:00] Verse 4x
[00:08] Verse 3x | Verse End
[00:16] Bridge | Verse 2x | Bridge
[00:27] Chorus

[00:31] Verse 2x
[00:34] Verse 3x | Verse End
[00:42] Bridge | Verse 2x | Bridge
[00:54] Chorus

[00:57] Break <span class="TABLYR">(Noohhomnnnoo)</span>
[01:12] Chorus
[01:16] Verse 2x
[01:20] Chorus <span class="TABLYR">(Dadadmmdat...)</span>

[01:24] Verse 4x
[01:31] Verse 1x | Verse End
[01:35] Bridge | Verse | Verse End | Bridge
[01:46] Chorus 3x
[01:57] Bridge


		
Scroll