The Smiths & Morrissey Bass Tabs

Rusholme Ruffians

(Morrissey/Marr)
			
Part A
G |---------------------------------|---------------------------------|
D |-------------7-7h8/9-------------|-------------7h9-7(h9)*----------| *) Sometimes not played
A |-5-------8h9--------------2--4---|-5-------8h9---------------0-0---|
E |---------------------------------|---------------------------------|

G |---------------------------------|---------------------------------|
D |-------------7-7h8/9-------------|---------------------------------|
A |-5-------8h9--------------2--4---|-----4---7-----------6---5-------|
E |---------------------------------|-5-----------5---4-----------3---|

Part B
G |---------------------------------|---------------------------------| 
D |---------------------------------|---------------------------------| 
A |-4h5---5-----5-5------2---0---2--|-4h5----5-----5-5-----2---0---2--|
E |---------------------------------|---------------------------------| 

G |---------------------------------|---------------------------------| 
D |---------------------------------|---------------------------------|
A |-4h5---5-----5-5------2---0---2--|-----4---7-----------6---5-------|
E |---------------------------------|-5-----------5---4-----------3---|

Order:
[00:04] Part A 2x

Block
[00:21] Part A 2x
[00:38] Part B 1x
[00:46] Part A
[00:54] Part B
Repeat this a zillion times

		
Scroll