The Smiths & Morrissey Bass Tabs

Rubber Ring

(Morrissey/Marr)
			
[00:00] Intro
G |---------------------------------||    |----------------------------7p---|
D |-------5---------------5---------||    |-------5---------------5---------|
A |------------5h7-------------5h7--||    |------------5h7------------------|
E |-0---------0-----0-0-------0-----||3x  |-0---------0-----0-0-------------|

[00:14] Verse (Slide)
G |---------------------------------|---------------------------------|
D |-------5---------------5---------|-------5-------------------------|
A |------------5h7-------------5h7--|-3-3--------5h7---------10\------|
E |-0---------0-----0-0-------0-----|-----------0-----0-0-------------|

[00:14] Verse (Pop)
G |---------------------------------|------------------------7p-------|
D |-------5---------------5---------|-------5----------------5p-------|
A |------------5h7-------------5h7--|-3-3--------5h7------------------|
E |-0---------0-----0-0-------0-----|-----------0-----0-0-------------|
 
[00:28] Verse (Main Riff)
G |---------------------------------|---------------------------------|
D |-------5---------------5---------|-------5----------------5--------|
A |------------5h7-------------5h7--|-3-3--------5h7-------------5h7--|
E |-0---------0-----0-0-------0-----|-----------0-----0-0-------0-----|

[00:35] Repeat Verse Main Riff

[00:43] Chorus
G |---------------------------------|---------------------------------||
D |---------------------------------|---------------------------------||
A |-3--3----3-3-----2--2----2-2-3---|-3-3-----2-2-----3---5---7-------||
E |-------03----3---------02--------|-----3-------2-----0---0-----0-0-|| 3x


[01:03] Verse Main Riff 2x
[01:18] Verse (Pop)
[01:03] Verse Main Riff
[01:31] Chorus


[01:52] Verse (D note)
G |---------------------------------|---------------------------------|
D |-------5---------------5---------|-------5---------------*)--------| *) The changed note
A |------------5h7-------------5h7--|-3-3--------5h7--------5----5h7--|
E |-0---------0-----0-0-------0-----|-----------0-----0-0-------0-----|

[01:59] Verse (Pop) 2x
[02:13] Verse Main Riff
[02:19] Chorus


[02:40] Do You Love Me - Part
G |---------------------------------|---------------------------------|---------------------------------|
D |-------5---------------5---------|-------5---------------5---------|---------------------------------|
A |------------5h7-------------5h7--|------------5h7-------------5h7--|-2--2----2-2-----3-3-----5---7---|
E |-0---------0-----0-0-------0-----|-3---------0-----5-5-------0-----|-------02----2-------3-----------|

[02:51] Chorus untill End

		
Scroll