The Smiths & Morrissey Bass Tabs

Reel Around The Fountain (Alt. Version)

(Morrissey/Marr)
			
[00:00] Intro
G |---------------------------------|---------------------------------|
D |---------------------------------|---------------------------------|
A |-(drum intro)--------------------|---------------------------------|
E |---------------------------------|-------------------------------4-|

[00:08] Verse A
G |---------------------------------|---------------------------------|
D |---------------------------------|-4-4-4-4-4-4-4-4-4-4-4-4-4-------|
A |-2-2-2-2-2-2-2-2-2-2-2-2-2-2-2---|---------------------------6-4---|
E |-------------------------------4-|-------------------------------4-|

G |---------------------------------|---------------------------------|
D |-----6-6---------2-2-2-2-2-2-2---|---------------------------------|
A |---------6-6---------------------|-2-2-2-2-2-2-2-2-2-2-2-2-2-2-2---|
E |---4---------4-4---------------4-|-------------------------------4-|

G |---------------------------------|---------------------------------|
D |---------------------------------|-4-4-4-4-4-4-4-4-4-4-4-4-4-------|
A |-2-2-2-2-2-2-2-2-2-2-2-2-2-2-2---|---------------------------6-4---|
E |-------------------------------4-|-------------------------------4-|

G |---------------------------------|---------------------------------|
D |-----6-6---------2-2-2-2-2-2-2---|---------------------------------|
A |---------6-6---------------------|-2-2-2-2-2-2-2-2-2-2-2---2---1---|
E |---4---------4-4---------------4-|-----------------------2---------|

[00:44] Chorus
G |---------------------------------|---------------------------------|
D |---------------------------------|---------------------------------|
A |-0-0-0-0-0-0-0-0---------------4-|----4-4-4-4-4-4-4-4-4-4-4-4-2---0|
E |-----------------4-4-4-4-4-4-4---|------------------------------4--|

G |---------------------------------|---------------------------------|
D |---------------------------------|-6-6-6-6-6-6-6-6-6-6-6---4---4---|
A |---0-0-0-0-0-0-0-0-0-0-0-0-0-0-6-|-----------------------6---------|
E |---------------------------------|---------------------------------|

[01:01] Verse B
G |---------------------------------|---------------------------------|
D |-----------------4---4-----------|-----------------4---4-2---1-----|
A |-2-2-2---2---2---------------1-2-|---2-2---2---2---------------4-2-|
E |-------4-------4-------4(4)4-----|-------4-------4-----------------|

G |---------------------------------|---------------------------------|
D |-------------------------------2-|---2---2-----------2-----4---4---|
A |---2-2---2---2---1-1-1-1-1-1-1---|---------2-----2-------2---------|
E |-------4-------4-----------------|-------------4-------------------|

G |---------------------------------|---------------------------------|
D |-----------------4---4-----------|-----------------4---4-2---1-----|
A |-2-2-2---2---2---------------1-2-|---2-2---2---2---------------4-2-|
E |-------4-------4-------4(4)4-----|-------4-------4-----------------|

G |---------------------------------|---------------------------------|
D |-------------------------------2-|---2---2---------2-2-2-----------|
A |---2-2---2---2---1-1-1-1-1-1-1---|---------2-----2-------2---4---2-|
E |-------4-------4-----------------|-------------4---------------4---|

[01:36] Verse C
G |---------------------------------|---------------------------------|
D |-------------------------------2-|---2---2---------2-2-2-----------|
A |-4-4-4-------2---4-4-4-----2-----|---------2-----2-------2---2---4-|
E |-------4---4---4-------4-----4---|-------------4---------------4---|

G |---------------------------------|---------------------------------|
D |-----------------2-------------2-|---2---2---------2-2---2---------|
A |---4---4-----2-----4-------2-----|---------2-----2---------2---2-4-|
E |---------4-4---4-------4-----4---|-------------4-------------4-----|

G |---------------------------------|---------------------------------|
D |-------------------------------2-|---2---2-------4---4---4--(4)----|
A |---4---4-----2---4-4---4---2-----|---------2-----------------------|
E |---------4-4---4---------4---4---|-------------4-----------------4-|

[03:28] and [05:29] Verse D
G |---------------------------------|---------------------------------|
D |-------------------------------2-|---2---2---------2-2---2---------|
A |---4---4-----2---4-4---4---2-2---|---------2-2---2---------2---2-4-|
E |---------4-4---4---------4-------|-------------4-------------4-----|

G |---------------------------------|---------------------------------|
D |-------------------------------2-|---2---2---------2-2---2---------|
A |---4---4-----2-4---4---4---2-----|---------2-----2---------2---2-4-|
E |---------4-4-------------4---4---|-------------4-------------4-----|

G |---------------------------------|---------------------------------|
D |-------------------------------2-|---2---2-------4---4---4--(4)----|
A |---4---4-----2---4-4---4---2-2---|---------2-----------------------|
E |---------4-4---4---------4-------|-------------4-----------------4-|

Order:
[00:00] Intro
[00:08] Verse A
[00:44] Chorus
[01:01] Verse B
[01:36] Verse C

[02:02] Verse A
[02:37] Chorus
[02:54] Verse B
[03:28] Verse D (Instead of Verse C)

[03:54] Verse A <span class="TABLYR">(I dreamt about you...)</span>
[04:28] Chorus

[04:46] Verse B
[05:29] Verse D (Instead of Verse C)

		
Scroll