The Smiths & Morrissey Bass Tabs

Reel Around The Fountain

(Morrissey/Marr)
			
[00:00] Intro
G |-b---x-b-b---x-b-b---x-x---b-x-b-|-b---x-b-b---x-b-b---x-x---b-x---|
D |---------------------------------|---------------------------------|
A |-(Drum intro)--------------------|---------------------------------|
E |---------------------------------|-------------------------------2-|

[00:09] Verse A
G |---------------------------------|---------------------------------|
D |---------------------------------|-2-----2-2----(2-2)------------4-|
A |-0-----0-0----(0-0)----4-----5---|---------------------------4-2---|
E |---------------------------------|---------------------------------|

G |---------------------------------|---------------------------------|
D |-----4---------------------------|---------------------------------|
A |---------4-------5---------5-4---|-0-----0-0-----0-0-----0---------|
E |---2---------2-2---------------2-|-------------------------------2-|

G |---------------------------------|---------------------------------|
D |---------------------------------|-2-----2-2----(2-2)--------2-2-4-| ?
A |-0-----0-0-----0-0-----4-----5---|---------------------------------|
E |---------------------------------|---------------------------------|

G |---------------------------------|---------------------------------|
D |-----4---------------------------|---------------------------------|
A |---------4-------5---------5-4---|-0-----0-0-----0-0-------0-------|
E |---2---------2-2---------------2-|-----------------------2-----4---|

[00:44] Chorus
G |---------------------------------|---------------------------------|
D |---------------------------------|---------------------------------|
A |-------------------------------2-|-------2-----0---2-----2-2-0-----|
E |-3-----3-3-----2-2-----2-2-------|---------2-----2-------------2-3-|

G |---------------------------------|---------------------------------|
D |---------------------------------|-4-4---4-4-4---4-4-------2---2---|
A |-------------------------------4-|-----------------------4---------|
E |-------3-3-----3-3-----3---------|---------------------------------|

[01:02] Verse B
G |---------------------------------|---------------------------------|
D |-----------------2---------------|-----------------2---------------|
A |-0-----4-5-----4---------------0-|-------0-0-----0-------5---4-2-0-|
E |-----------------------2---2-4---|---------------------------------|

G |-----2-2-------------------------|---------------------------------|
D |---------2-2---------------------|-------------------------2---2---|
A |---0---------0-0-----------2-4-5-|---5---5-0-----0-5---5-0---------|
E |-----------------4-----4-4-------|-------------2-------------------|

G |---------------------------------|---------------------------------|
D |-----------------2---------------|-----------------2---------------|
A |-0-----4-5-----4---------------0-|-------0-0-----0-------5---4-2-0-|
E |-----------------------2---2-4---|---------------------------------|

G |-----2-2-------------------------|---------------------------------|
D |---------2-2---------------------|---------------------------------|
A |---0---------0-0-----------2-4-5-|---5---5-0-----0-5-----5-0---0-2-|
E |-----------------4-----4-4-------|-------------2-------------2-----|

[01:36] Verse B
G |---------------------------------|---------------------------------||
D |---------4---------------4-------|---------------------------------||
A |---2---2-----0---2-----2---0-2---|---5---5-0-------0-5---5-0---0-2-||
E |---------------2---------------2-|-------------2-------------2-----|| 2x

[01:55] Verse B
G |---------------------------------|---------------------------------|
D |-------------------------4-------|-----------------2-----2-2-------|
A |---2---2-----0---2-----2---0-2---|---5---5-0-----2-----------------|
E |---------2-----2---------------2-|-------------2---------------2-4-|

Order:
[00:00] See Above

[02:03] Verse A
[02:38] Chorus
[02:56] Verse B

[03:57] Verse A <span class="TABLYR">(I dreamt about you...)</span>
[04:32] Chorus
[04:49] Verse B


		
Scroll