The Smiths & Morrissey Bass Tabs

Pretty Girls Make Graves

(Morrissey/Marr)
			
Verse                                           Verse End (Is simply the same as first Verse part)
G |---4-------7---6-||   |---4---4---4---6-|   |---4-------7---6-|
D |-------4---------||   |-----------------|   |-------4---------|
A |-2-------5---0---||   |-2---2-------0---|   |-2-------5---0---|
E |-----2-----------||3x |---------3-------|   |-----2-----------|
                                                                         
Aah Part
G |---------4-----------------------|---------4-----------------------|---------------------------------|
D |-----6-------4-------------------|-----6-------4-------------------|---------------------------------|
A |-4-----4-------2-0-----------2---|-4-----4-------2-0---------------|---------------------------------|     Build up
E |---------------------------------|-----------------------------4---|-2-2-2-2-2-2-2-2-2-2-2-2-2-2-2---| <-  volume

Outro
G |---------------------------------|
D |---------------------------2-4---|
A |---------------------------------|
E |-2-2-2-2-2-2-2-2-2-2-2-2-2-----2-|

Order:
[00:07] Verse 6x | Verse End
[00:37] Aah Part
[00:50] Verse 4x | Verse End
[01:26] Aah Part
[01:40] Verse 4x
[02:17] Aah Part | Verse End
[02:29] Outro until fade


		
Scroll