The Smiths & Morrissey Bass Tabs

Please, Please, Please Let Me Get What I Want

(Morrissey/Marr)
			
G |---------------------------------|---------------------------------|---------------------------------|
D |---------------------------------|---------------------------------|---------------------------------|
A |-5-----------------------------4-|-5-------------------------------|---------------------------------|
E |-----------------5---------------|-----------------5---------------|-2---------------3---------------|

G |---------------------------------|---------------------------------|---------------------------------|
D |---------------------------------|---------------------------------|---------------------------------|
A |-----------------------------3-4-|---------------5-------------2-4-|-5-----0-4-----------------------|
E |-5---------------5---------?-----|-3---------------5---------------|-----------------3-------------2-|

G |---------------------------------|---------------------------------|---------------------------------|
D |---------------------------------|------------------------4--------|-5-------------------------------|
A |-------------------------------0-|-2-------4-------5---------------|---------------5-------------2-4-|
E |-3---------------5-----------2---|---------------------------------|-----------------5---------------|

[00:35] Repeat Above

[01:09]
G |---------------------------------|---------------------------------|---------------------------------|
D |---------------------------------|---------------------------------|---------------------------------|
A |-5---------------3-----------2-0-|-----------------------------2-4-|-5-------4-----------------------|
E |---------------------------------|-3---------------5---------------|-----------------3---------------|

G |---------------------------------|---------------------------------|---------------------------------|
D |---------------------------------|---------------------------------|--------------(2)----------------|
A |---------------------------------|-5---------------3-----------2-0-|------------(4)------------------|
E |-3---------------5---------------|---------------------------------|-2---------------4-------5-------|

G |---------------------------------|---------------------------------|---------------------------------|
D |---------------------------------|---------------------------------|---------------------------------|
A |-2-------------2-4-------5-------|-------------------------2-------|-0-------------------------------|
E |-------------2-------------------|-3-----------0-2-3---------------|---------------------------------|

Order:
Play Above


		
Scroll