The Smiths & Morrissey Bass Tabs

Panic

(Morrissey/Marr)
			
Intro
G |---------------------------------|
D |---------------------------------|
A |-3---------------5-------1-------|
E |-----------------------------1--1|

Verse A
G |---------------------------------|---------------------------------|---------------------------------||
D |-------5---------------2---------|-------5---------------2---------|---------------------------------||
A |---------------------------------|-----------------------------2---|-3-------2---0---5-------1-------||
E |-3----------(3)--0-----------2---|-3-----------3---0---------------|-----------------------------1--1|| 4x

Interlude
G |---------------------------------|--------------------------9--11--|
D |---------------------------------|-------4-4-----------------------|
A |-7---5-------5---7------------0--|-2---------------5---------------|
E |---0---0---7-------0-0---0-0-----|-------------------0-0-----------|

G |---------------------------------|---------------------------------|
D |---------------------------------|-------4-4----------------2------|
A |-7---5-------5---7------------0--|-2---------------5---------------| ?
E |---0---0---7-------0-0---0-0-----|-------------------0-0-------2---| ?

Verse B
G |---------------------------------|---------------------------------|---------------------------------|
D |-------5---------------2---------|-------5---------------2---------|-------------------------2---4---|
A |---------------------------------|-----------------------------2---|-3-------2---0---5---------------|
E |-3----------(3)--0-----------2---|-3-----------3---0---------------|---------------------------------|

G |---------------------------------|---------------------------------|---------------------------------|
D |-------5---------------2---------|-------5---------------2---------|---------------------------------|
A |---------------------------------|-----------------------------2---|-3-------2---0---5-------1-------|
E |-3----------(3)--0-----------2---|-3-----------3---0---------------|-----------------------------1--1|

G |---------------------------------|---------------------------------|---------------------------------|
D |-------5---------------2---------|-------5---------------2---------|---------------------------------|
A |---------------------------------|-----------------------------2---|-3-------2---0---5-------0---2---|
E |-3----------(3)--0-----------2---|-3-----------3---0---------------|---------------------------------|

G |---------------------------------|---------------------------------|
D |---------------------------------|---------------------------------|
A |-3-------2---0---5-------0---2---|-3-------2---0---5-------1-------|
E |---------------------------------|-----------------------------1--1|

G |---------------------------------|---------------------------------|---------------------------------||
D |-------5---------------2---------|-------5---------------2---------|---------------------------------||
A |---------------------------------|-----------------------------2---|-3-------2---0---5-------1-------||
E |-3----------(3)--0-----------2---|-3-----------3---0---------------|-----------------------------1--1|| 3x

Order:
[00:00] Intro
[00:05] Verse A
[00:48] Interlude
[01:03] Verse B


		
Scroll