The Smiths & Morrissey Bass Tabs

Paint A Vulgar Picture

(Morrissey/Marr)
			
Intro
G |---------------------------------|---------------------------------|
D |---------------------------------|---------------------------------|
A |-2-------------0---------------0-|-2-------------0-----------0-2-4-|
E |---------3-3---------------3-3---|---------3-3---------------------|

Verse A
G |-----------------------6-7-------|---------------------------------|----------------|
D |-----2-4-5-----5---7-7-------7-4-|-5---5---7\----------------------|----------------|
A |-5-------------------------------|-------------0-1-2-------------0-|--------------0-|
E |---------------------------------|-------------------------3-3-----|----------3-3---|

G |-------------------2------(2)----|-----------------|
D |---------------------------------|-----------------|
A |-2-------------0------(0)--------|-----------------|
E |---------3-----------------------|-2-2---0202222\--|

Verse B
G |-----------------------3-4-------|---------------------------------|
D |-------1-2-----2---4-4-------4-1-|-2-----2---4\--------6\--2-2-----|
A |-2---4---------------------------|---------------------------------|
E |---------------------------------|-------------2-3-4---------------|

Verse B End1                                              Verse B End2
G |---------------------------------|-----------------| |---------------------------------|-----------------|
D |-----4---------------6-4-2-------|-----------------| |-----4-4---2-1-------6\--2-2-----|-------4---4-----|
A |---------------------------------|---------------1-| |---------------4-----------------|-----------------|
E |-2---------0-0-2-4---------------|-2-----2---2-4---| |-2---------------4---------------|-2-------------2-|

Break A                Break B
G |-----7----7-77---| |-----------------|
D |-----------------| |-----4----4-44---|
A |-0-0-----0-------| |---------0-------|
E |--------x--------| |-2-2----x--------|

Order:
[00:17] Intro
[00:27] Verse A
[00:47] Verse B | End1
[01:05] Verse B | End2

[01:22] Break A
[01:25] Verse A (Skip Last Bar)
[01:40] Verse A (Skip Last Bar)
[02:00] Break B
[02:02] Verse B | End1
[02:19] Verse B | End2
Repeat this 2 times

[05:07] Break A until end


		
Scroll