The Smiths & Morrissey Bass Tabs

Oscillate Wildly

(Marr)
			
Verse
G |---------9-9---7-----------------|---------------------------------|
D |---7-7-------5-----7-7---9---9-10|-----------------3-----2---------|
A |-------7---------------7---7-----|-8-----3-----0---------------3---|
E |-5---------------5---------------|---------------------------------|

Bridge
G |-----------------4---------------|-------------5-----------4-------|
D |-----------------------5---------|-------7-------------------------|
A |-5-----------5---------------7---|-8-------------------------------|
E |-------5-------------------------|-----------------3---------------|

Chorus A                                                                 Alternate End
G |---------------------------------|---------------------------------| |---------------------------------|
D |-7-----------------5x--2-3---5---|---------------------------------| |---------------------------------|
A |-------8---7-5-------------------|-7------57-7---8---3-0-3---------| |-7------57-7--------------57-----|
E |---------------5-----------------|-------5-------------------3---3-| |-------5-----7-0---------5-------|

Post Chorus A
G |---------------------------------|---------------------------------|---------------------------------|
D |-3~~-------------3~~-------------|-5-----3---2-3-5---5x--2-3-2-3---|-5-----5-3---3-5---5x----5---6---|
A |-------3-0-3-----------3-0---3---|---------------------------------|-----------3---------------------|
E |---------------------------------|---------------------------------|---------------------------------|

Chorus B                                                                 Alternate End
G |---------------------------------|---------9-----------------------| |---------------------------------|
D |-7-7---------------5x--2-3---5---|---------------------------------| |---------9-----------------------| *) 2nd time
A |-------8---7-5-------------------|-7------7------8---3-0-3---------| |-7------7-----------------57-----|
E |---------------5-----------------|-------7-------------------3---3-| |-------7-----7-0---------5-------|

Post Chorus B
G |---------------------------------| |---------------------------------||    |---------------------------------|
D |-3~~-------------3~~-------------| |-----5-3---2-------5x--2-3-2-3---||    |-------5-3---3-5---5x----5---6---|
A |-------3-0---3---------3-0---3---| |-------------5-------------------||    |-----------3---------------------|
E |---------------------------------| |-3-------------3-----------------|| 3x |-3-------------------------------|


Order:
[00:00] <span class="TABLYR">Piano Intro</span>
[00:08] <span class="TABLYR">Drums come in</span>
[00:16] Verse 2x
[00:33] Bridge
[00:41] Chorus
[00:58] Part D

[01:10] Part A 4x
[01:43] Part B
[01:51] Part C
[02:08] Part D (Second Bar 3 times)

[02:29] Part A until end


		
Scroll