The Smiths & Morrissey Bass Tabs

Nowhere Fast

(Morrissey/Marr)
			
Intro
G |---------------------------------|
D |---------------------------------|
A |-------0h2---5---0-----0h4---7---|
E |-3-------------------------------|

Verse
G |---------------------------------|---------------------------------|
D |---------------------------------|-------2h4-----------------------|
A |-2-----------0---2-----------0---|-2-----------2---2---------0h2---|
E |---------2-------------2---2-----|-----------------------2---------|

G |-------------7---9---------------|---------------------------------|
D |-------7h9-----------2---4---5---|---------------------------------|
A |-0-------------------------------|-------0h2---5---0-----0h4---7---|
E |---------------------------------|-3-------------------------------|

Chorus
G |---------------------------------|---------------------------------|
D |---------7~~---------------------|---------------------------------|
A |-----------------7~~-----0---0---|-2---------------2---------------|
E |-5~~-----------------------------|---------2---------------2-------|

G |---------------------------------|---------------------------------|
D |---------------------------------|---------------------------------|
A |---------------------------------|-----------------5---------------|
E |-3-----3---3-3-----3-3---3---2---|-3-----3---3-3-----------5-------|

G |---------------------------------|---------------------------------|
D |---------------------------------|---------------------------------|
A |-0-----0---0-0-----0-0---0---1---|-2---------------2---------------|
E |---------------------------------|---------2---------------2-------|

G |---------------------------------|---------------------------------|
D |---------------------------------|---------------------------------|
A |---------------------------------|---------------------------------|
E |-3-----3---3-3-----3-3---3---2---|-3-----3---3-3-----3-3---3---2---|

G |---------------------------------|---------------------------------|
D |---------------------------------|---------------------------------|
A |-7---5-5h7---5-5h7---5-5h7---5-5-|-------0h2---5---0-----0h4---7---|
E |---------------------------------|-3-------------------------------|

Break
G |---------------------------------|---------------------------------|
D |---------------------------------|---------------------------------|
A |---------------------------------|---------------------------------|
E |-2-----2-2-----2-2---2---5---5---|-2-----2-2-----2-2---2---5---5---|

G |---------------------------------|---------------------------------|
D |---------------------------------|---------------------------------|
A |-5-----5-5-----5-5---5---5-------|-7-----7-7-----7-5---5-----------|
E |-----------------------------7---|-------------------------5---5---|

G |---------------------------------|---------------------------------|
D |---------------------------------|---------------------------------|
A |---------------------------------|---------------------------------|
E |-2-----2-2-----2-2---2---5---5---|-2-----2-2-----2-2---2---5---5---|

G |---------------------------------|---------------------------------|
D |---------------------------------|---------------------------------|
A |-7---5-5h7---5-5h7---5-5h7---5-5-|-------0h2---5---0-----0h4---7---|
E |---------------------------------|-3-------------------------------|

End
G |---------------------------------|---------------------------------|
D |---------------------------------|---------------------------------|
A |-2~~--------------0~~------------|---------------------------------|
E |---------------------------------|-3~~-----------------------------|

Order:
[00:00] Intro
[00:02] Verse 3x
[00:28] Chorus
[00:49] Verse 3x
[01:14] Chorus
[01:36] Break
[01:53] Verse 3x | Repeat Last Bas 2 times
[02:27] End


		
Scroll