The Smiths & Morrissey Bass Tabs

Never Had No One Ever

(Morrissey/Marr)
			
Intro
G |-0-5-------|
D |-----------|
A |-------0---|
E |-----3-----|

[00:15] Main Riff
G |---------------------------------|---------------------------------|---------------------------------|
D |-------------5-----4---------7-7-|-----------------------7-----5---|---4-----------------------------|
A |-0-0-0-0---7-----------5-0-------|---7-5-----7-----0---------7-----|-------5-0---0-0---0-------------|
E |---------------------------------|---------------------------------|---------------------1-----3-----|

G |---------------------------------|---------------------------------|---------------------------------|
D |-------7-----5-----4---------7-7-|-----------------------7-----5---|---4---------7-7-7---------------|
A |-0---------7-----------5-0-------|-----5-----7-----0---------7-----|-------5-0---------7-------------|
E |---------------------------------|---------------------------------|---------------------1-----3-----|

Break A
G |---------------------------------|-----------------|
D |---------------------------------|---------2-5-----|
A |-----3-----3-----3-----2-----2---|---2---2---------|
E |-1-1---1-1---1-1---1-1---0-0---0-|-0---0-----------|

[00:40] Main Riff
G |---------------------------------|---------------------------------|---------------------------------|
D |-------------5-----4-------------|-----------------------7-----5---|---4---------7-7-----------------|
A |-0---0-0---7-----------5-0---0-0-|-----5-----7-----0---------7-----|-------5-0-----------------------|
E |---------------------------------|---------------------------------|-------------------0-1-----3-----|

G |---------------------------------|---------------------------------|---------------------------------|
D |-------7-----5-----4---------7-7-|-----------------------7-----5---|---4---------7-7-----------------|
A |-0---------7-----------5-0-------|-----5-----7-----0---------7-----|-------5-0-----------------------|
E |---------------------------------|---------------------------------|-------------------0-1-----3-----|

G |---------------------------------|---------------------------------|---------------------------------|
D |-------7-----5-----4---------7-7-|-----------------------7-----5---|---4-----------------------------|
A |-0---------7-----------5-0-------|-----------------0---------7-----|---------------------------------|
E |---------------------------------|---0-1-----3---------------------|-------0-------------1-----3-----|

G |---------------------------------|-----------------|
D |-------7-----5-----4---------7-7-|-----------------|
A |-0---------7-----------5-0-------|-----------------|
E |---------------------------------|-0-3-5-----5-----|

Break B
G |---------------------------------|-------------7---|
D |---------------------------------|---2-----5-7---5-|
A |-----------2-----------3-2-2-2-2-|-2---------------|
E |-1-1-1-1-1---1-1-1-1-1-----------|-----------------|

[01:20] Main Riff
G |---------------------------------|---------------------------------|---------------------------------|
D |-------7-----5-----4-------------|---------------------7-7-----5---|---4---------7-7-----------------|
A |-0---------7-----------5-0---0-0-|-----5-----7-----0---------7-----|-------5-0-----------------------|
E |---------------------------------|---------------------------------|-------------------0-1-----3-----|

G |---------------------------------|---------------------------------|---------------------------------|
D |-------7-----5-----4---------7-7-|---------------------7-7-----5---|---4-----------------------------|
A |-0---------7-----------5-0-------|---7-5-----7-----0---------7-----|-------5-0---0-0-----------------|
E |---------------------------------|---------------------------------|-------------------0-1-----3-----|

Break C
G |---------------------------------|-----------1-----|
D |---------------------------------|---------------2-|
A |-----3-----------3-----------2---|---2-----2-------|
E |-1-----1---0-1-1---1-----0-----0-|-----0-----------|

[01:58] Main Riff
G |---------------------------------|---------------------------------|---------------------------------||
D |-------------5-----4-------------|-----------------------------5---|---4-----------------------------||
A |-0---------------------5-0-------|-----5-----7-----0---------------|-------5-0-----------------------||
E |---------------------------------|---------------------------------|-------------------0-1-----3-----|| 2x

G |---------------------------------|-----------------|
D |-------------5-----4-------------|-----------------|
A |-0---------------------5-0-------|-----------------|
E |---------------------------------|-----1-----3-----|

(Repeat Break A)

[02:43] Main Riff
G |---------------------------------|---------------------------------|---------------------------------|
D |---------------------------------|---------------------7-7-----5---|---4---------7-7-----------------|
A |-0-0x--------------------0-------|-----5-----7-----0---------7-----|-------5-0-----------5-----7-----|
E |-----------0-3-----2---0---------|---------------------------------|---------------------------------|

G |---------------------------------|---------------------------------|---------------------------------|
D |-------7-----5-----4---------7-7-|---------------------7-7-----5---|---4---------7-7-----------------|
A |-0---------7-----------5-0-------|-----------------0---------7-----|-------5-0-----------5-----7-----|
E |---------------------------------|---0-1-----3---------------------|---------------------------------|

G |---------------------------------|-----------------|
D |-------7-----5-----4---------7-7-|-----------------|
A |-0---------7-----------5-0-------|-----------------|
E |---------------------------------|---0-1-----3-----|

(Repeat Break A)

Order:
[00:00] Intro
[00:15] Main Riff
[00:30] Break A
[00:38] Main Riff
[01:14] Break B
[01:22] Main Riff
[01:50] Break C
[01:58] Main Riff
[02:35] Break A
[02:43] Main Riff
[03:20] Break A


		
Scroll