The Smiths & Morrissey Bass Tabs

Money Changes Everything

(Marr)
			
Main Riff
G |---------------------5-----------|---------------------------------|
D |---------5h7-----5h7-------------|---------------------------------|
A |-0-0-----------------------0-3---|-3-0-----0-0---0-----------------|
E |---------------------------------|-------------------0-3--3-0------|

G |---------------------5-----------|---------------------------------|
D |---------5h7-----5h7-------------|---------------------------------|
A |-0-0-----------------------0-3---|-3-0-----0-0---0---0-3--2--------|
E |---------------------------------|--------------------------3------|

Chorus
G |---------------------------------|---------------------------------|
D |-0-0---0-0---0-2-3---------------|---------------------------------|
A |---------------------------------|-3---3---------------------------|
E |-------------------0-0-2---3-----|-------3--------5---5---7---5----|

Silent Part
G |---------------------------------|---------------------------------|
D |---------------------------------|---------------------------------|
A |(0)------------------------------|-------(3)-----------------------|
E |--------------(2)----------------|(3)--------(3)--(5)--------------|

G |---------------------------------|---------------------------------|
D |---------------------------------|---------------------------------|
A |------(3)--------------(5)-------|(0)---------------------(0)------|
E |(3)-------(3)-(5)----------(7)---|----------------(2)---------(2)--|

Interlude
G |---------------------------------|---------------------------------|
D |---------------------------------|---------------------------------|
A |---------------------------------|-0-------------3---------7-------|
E |-3-------------5--------------2--|---------------------------------|

G |---------------------------------|---------------------------------|
D |---------------------------------|---------------------------------|
A |---------------------------------|-0-------------3---------7--8----|
E |-3----------(0)5--------------2--|---------------------------------|

G |---------------------------------|---------------------------------|
D |---------------------------------|---------------------------------|
A |---------------------------------|-0-------------3---------7-------|
E |-3-------------5--------------2--|---------------------------------|

G |---------------------------------|---------------------------------|
D |---------------------------------|---------------------------------|
A |---------------------------------|-0-------------------------------|
E |-3-------------5--------------2--|---------------5-h-7-----5-h-7---|

Order:
[00:19] Main Riff 6x
[00:48] Other Riff | Riff | Other Riff | Riff
[01:07] Main Riff 4x
[01:26] Other Riff | Riff | Other Riff | Riff
[01:46] Silent Part 2x
[02:05] Main Riff 4x
[02:26] Other Riff | Riff | Other Riff | Riff
[02:44] Interlude
[03:02] Other Riff 3x
[03:17] Rest
[03:27] Main Riff 2x
[03:36] Other Riff 3x | Last Bar Of Main Riff 2x
[03:56] Main Riff fade


		
Scroll