The Smiths & Morrissey Bass Tabs

Miserable Lie (Alt. Version)

(Morrissey/Marr)
			
Verse
G |---------4---------------4-------|---------------------------------|
D |-2---2-------2-------2-------2---|---------4-----------------------|
A |---------------------------------|-2---2-------0-------0---0---2---|
E |---------------------------------|---------------------------------|

Main Line
G |---------------------------------|---------------------------------|
D |---------------------2---2---2---|-------4-------------------------|
A |-4---4-2-----4-------------------|-2---2-------2-------0---0---2---|
E |---------------------------------|-----------------4---------------|

Variation
G |---------------------------------|---------------------------------|
D |---------------------2---2---2---|---------------------------------|
A |-4---4-2-----4-------------------|-------------2---2---2-2-----2---|
E |---------------------------------|-4---4-4-------------------------|

Order:
[00:00] Intro 
[00:53] Main Line until the end
[03:14] Variation


		
Scroll