The Smiths & Morrissey Bass Tabs

Miserable Lie

(Morrissey/Marr)
			
Intro
G |---------------------------------|---------------------------------|
D |---------7---------------7-------|---------------------------------|
A |-5---5-------5-------5-----------|---------------------------------|
E |---------------------------------|-5-----------3---------------5---|

Main Line
G |---------------------------------|---------------------------------|
D |---------------------------------|-------2-------------------------|
A |-2---2-0-----2-------5---5---5---|-0---0-------0-------------------|
E |---------------------------------|-----------------2---3---3---5---|

Variation
G |---------------------------------|---------------------------------|
D |---------------------------------|---------------------------------|
A |-2---2-0-----2-------5---5---5---|---------------------------------|
E |---------------------------------|--2--2-2-----2---5---5-5-----5---|

Order:
[00:00] Intro 
[00:55] Main Line a zillion times!
At the end of the Marr 'Solos' play:
[03:11] & [03:43] Variation

Hit A nice B at the end!

		
Scroll