The Smiths & Morrissey Bass Tabs

Meat Is Murder

(Morrissey/Marr)
			
Verse
G |---2-------5-----|----------------|---5-------------|
D |-----2-3-----0---|--------------3-|-----------3-----|
A |-0---------------|--3-----0-2-3---|-----0-2-3----3--|
E |-----------------|----------------|-----------------|

Chorus
G |-----------------|----------------|-----------------|-------------0---|--------------2p|-----------2p----| p=Pop
D |-3-----------3---|--------0-------|-----0-----------|-3---------------|--0-------------|-----------------|
A |-------3---------|--3-----------0-|-----------0-----|-------3---------|--------0-------|-----0-----------|
E |-----------------|----------------|-----------------|-----------------|----------------|-----------------|

Chorus Alternate Ending ([03:44] instead of the last Chorus Bar)
G |-----7p----7p----| p=Pop
D |-----------------|
A |-----------------|
E |-----------------|

Post Chorus
G |-----------------|----5---------2p|-----7p----7p----|-----------------|----------------|-----------------|
D |-3-----2-----0---|--3-------------|-----------------|-3-----2-----0---|--3-------------|-----------------|
A |-----------------|--------0-------|-----------------|-----------------|--------0-------|-----0-2-3----3--|
E |-----------------|----------------|-----------------|-----------------|----------------|-----------------|

G |-----------------|
D |-----------------|
A |-2-----3-2-3-0---|
E |-----------------|

Order:
[00:00] <span class="TABLYR">(Scary shit)</span>
[00:50] Verse (Start somewhere at the second bar)
[00:54] Verse 4x
[01:30] Verse 2x
[01:49] Verse 2x <span class="TABLYR">(Heifer wines...)</span>
[02:06] Chorus 2x
[02:42] Post Chorus

[03:02] Verse <span class="TABLYR">(Kitchen aromas...)</span>
[03:10] Chorus
[03:28] Chorus (Alternate endinig)
[03:46] Post Chorus

[04:06] Verse until end


		
Scroll