The Smiths & Morrissey Bass Tabs

London

(Morrissey/Marr)
			
Verse                                                                    Verse End
G |---------------------------------|---------------------------------| |---------------------------------|
D |---------------------------------|---------------------------------| |---------------------------------|
A |---------------------------------|---------------------------------| |------------------------------5--|
E |-2---2x--------0-2---2-2---5\----|-0---2x-------2--2---2-2---2-(5)-| |-0---2x-------2--2---2-2---2-----|

Chorus
G |---------------------------------|---------------------------------|
D |---------------4-----------------|---------------------------------|
A |-2---2---2-------2---2-2---2/----|-7---7---7-------7---7-7---7\----|
E |---------------------------------|---------------7-----------------|

Outro
G |---------------------------------|---------------------------------|
D |-4---4-----------0-------2-------|-----------------0-------2-------|
A |---------------------------------|-4---4---------------------------|
E |---------------------------------|---------------------------------|

G |---------------------------------|---------------------------------|
D |-----------------0-------2-------|-----------------0-------2-------|
A |---------------------------------|-4---4---------------------------|
E |-2---2---------------------------|---------------------------------|

Order:
[00:03] Verse 3x | Verse End
[00:19] Chorus | Verse End | Chorus
[00:31] Verse 3x | Verse End
[00:45] Chorus | Verse End | Chorus
[00:57] Verse 3x | Verse End
[01:11] Chorus | Verse End | Chorus
[01:23] Verse 1x
[01:26] Outro until fade


		
Scroll