The Smiths & Morrissey Bass Tabs

Last Night I Dreamt That Somebody Loved Me

(Morrissey/Marr)
			
Verse [01:54] (Last night I dreamt...)
G |-----------------------7---------|---------------5------------/7---|-9---------------9-8-------------|
D |-2-------------------7-----------|-----------5---------------------|-------9-------------9-----------|
A |-----------5-7-----5-----3-------|-----3-----------3---------5-----|-----------------------9-----5-6-|
E |---------7-----------------------|-0-2-----------------------------|-------------------------5-7-----|

Verse [02:09]
G |---------------------------------|---------------------------------|---------------------------------|
D |---------------------------------|-----------5---------------------|-----------------------0-2-------|
A |-7---------5-7-----5-----3-------|-----3-----------3-----------3---|-------2-------------2-----2---2-|
E |---------7-----------------------|-0-2---------------------0-2-----|-----------------0-2---------2---|

Verse [02:23]
G |-----------------------7---------|----------------------------/7---|-5-------------------------------|
D |-2-------------------7-----------|-----------5---------------------|---5---7-------------------------|
A |-----------5-7-----5-----3-------|-----3-----------3---------------|---------------------2-----2-5-6-|
E |---------7-----------------------|-0-2-----------------------3-----|---------7-------0-2-------------|

Verse [02:37]
G |-----------------------7---------|---------------------------------|---------------------------------|
D |---------------------7-----------|-----------5---------------------|-----------------------0-2-------|
A |-7---------5-7-----5-----3-------|-----3-----------3-----------3---|------3-2------------2-----2---2-|
E |---------7-----------------------|-0-2---------------------0-2-----|--2--------------0-2---------2---|

Verse [02:52] (How long...)
G |---------------------------------|---------------5-----------------|---5-----------------------------|
D |-2-------------------------------|-----------5---------------------|-5-------------------------------|
A |-----------5-7-----5---5-3-------|-----3-----------3-----------3---|-----2-2-2-2---------2-----2-5-6-|
E |---------7-----------5-----------|-0-2---------------------0-2-----|-----------------0-2-------------|

Verse [03:06]
G |---------------------------------|---------------------------------|---------------------------------|
D |---------------------------------|-----------5---------------------|---------------------------------|
A |-7---------5-7-----5-----3-------|-----3-----------3-----------3---|/5-----2-------------2-----2-5-6-|
E |---------7-----------------------|-0-2---------------------0-2-----|-----------------0-2-------------|

Verse [03:19] (This stroy is old...)
G |-----------------------7---------|---------------------------------|---------------------------------|
D |---------------------7-----------|-----------5---------------------|---------------------------------|
A |-7---------5-7-----5-----3-------|-----3-----------3-----------3---|/5-----2-------------2-----2-5-6-|
E |---------7-----------------------|-0-2---------------------0-2-----|-----------------0-2-------------|

Verse [03:35]
G |-----------------------7--------|----------------------------------|---------------------------------|
D |---------------------7----------|-----------5------------------5---|-----------------------0-2-------|
A |-7---------5-7-----5-----3------|-----3------------3---------------|-----3-2---2-2-------2-----2---2-|
E |---------7-------7--------------|-0-2------------------------------|-----------------0-2---------2---|

Verse [03:49] (It goes on...)
G |-----------------------7--------|-------------/5-------------------|---------------------------------|
D |-2-------------------7----------|----------------5-----------------|---5-----------------------------|
A |-----------5-7-----5----3-------|-----3------------3-----------3---|-----3-2--------------2----2-5-6-|
E |---------7-------7--------------|-0-2----------------------0-2-----|-----------------0-2-------------|

Verse [04:04]
G |--------------------------------|----------------------------------|-----7-4-------------------------|
D |--------------------------------|-----------5----------------------|---5-----------------------------|
A |-7---------5-7------------------|-----3------------3-----------3---|---------------------2-----2-5-6-|
E |---------7----------3-----------|-0-2----------------------0-2-----|-----------------0-2-------------|

Verse [04:17]
G |--------------------------------|----------------------------------|---------------------------------|
D |--------------------------------|-----------5----------------------|---------------------------------|
A |-7---------5-7----5-----3-------|-----3------------3-----------3---|-5-2-5-2-------------2-----2-5-6-|
E |---------7------7---------------|-0-2----------------------0-2-----|-----------------0-2-------------|

Verse [04:31]
G |----------------------7---------|----------------------------------|---------------------------------|
D |--------------------7-----------|----------------------------------|---------------------------------|
A |-7---------5-7----5-----3-------|-----3--(Fade Out)----------------|---------------------------------|
E |---------7------7---------------|-0-2------------------------------|---------------------------------|

Order:
[00:00] Piano Intro
[01:54] Play Full Tab

		
Scroll